Login or Register to remove this ad. | Advertise Here

Louise's Theme (Zero no Tsukaima) Bass/Guitar Tab

Submitted: Feb 07, 2011 by Caldron (Last updated: Feb 08, 2011)

5
Average: 5 (1 vote)
Download | Listen
Game: Zero no Tsukaima
Composer(s): Mitsumune Shinkichi
Style: 2 or more instruments, Alternate picking, Arrangement, Artificial harmonics, Percussion, Tremolo

AutoScroll: Slow | Medium | Fast
Louise's Theme
Mitsumune Shinkichi
Tabbed by Caldron
Zero no tsukaima OST


Electric Guitar Solo

     E    H         Q    E     E.  E.    E    Q.       S S  
E||-------------------------|------------------------------|
B||--x--/10--------\8-------|------------------------------|
G||----------------------7--|--5---7---7g9--5g7~-----------|
D||-------------------------|-------------------------10-7-|
A||-------------------------|------------------------------|
E||-------------------------|------------------------------|


                                                                 W    \1/  
   Q    T   T  S S S  S S S  S S S S S    E  S S  E.    E.    S. Q    T    
---------------------------------------|----------------------------------|
---------------------------------------|--8----8-10---/12s---13-10----L---|
-------------------------------7-9-7-x-|-----7----------------------------|
--10----9h-10p-9-7-9----7-9-10---------|----------------------------------|
---------------------10----------------|----------------------------------|
---------------------------------------|----------------------------------|


                                                                 SH           
  E   E   E  S  E  S  E  S  E.      S S S T  T S S S S S S S S   T  T T S S.  
--------------------------------|--------------------------------------------|
--L------13----12----10---------|--------------------------------------------|
-----/9------9-----9-----9-12---|--\7-5-7-9p-7-5---7-5-----------------------|
--------------------------------|----------------7-----7-5---5---------------|
--------------------------------|--------------------------7---<>7s-5--------|
--------------------------------|-------------------------------------7-5-8--|


                                                                      \1/  
  E  S S S  S  S S S  S  S     S  S  S  S  S     E  S S S S S Q.      E.   
----------------------------------------------|---------------------------|
----------------------------------------------|---------------------------|
-------------------7-----7pbr--L-----------L--|--5------------------------|
-----------(5)-6-7---(7)-L----(7)---(7)---(7)-|-----7-5---5-7-7~------L---|
-------5-7------------------------------------|---------7-----------------|
--L--8----------------------------------------|---------------------------|


   E  S  S  E   Q.        S   S. T  S  
--------------------------------------|
--------------------------------------|
------9-10-12--12b~-------Lp-10p-9----|
--12-------------------------------12-|
--------------------------------------|
--------------------------------------|


  S  S S  S  S  S  S S S  S  S  S  S S S  S   
---------------------------------------------|
---------------------------------------------|
--9-10-9-------------------------------------|
---------12-10-----------------------9---12b-|
---------------12-10-8---------10-12---------|
-----------------------8-10-12---------------|


  E.   S  S  T   T   S   S   S   S   E    S  S  S  S  
-----------------------------------------------------|
-----------------------------------------------------|
--------------------------------------------12-14-12-|
--L---10-12-14p-12p-10------12------10--/14----------|
-----------------------(10)----(10)------------------|
-----------------------------------------------------|


   Q     S.  S. S. S. S  Q    S    E      E.      E.  E  E   Q      
--------------------------------|----------------------------------|
------------13----12------------|-----13g15----xg13---x--x--15b----|
--14b----L-----14----12---------|----------------------------------|
------------------------14----L-|----------------------------------|
--------------------------------|----------------------------------|
--------------------------------|----------------------------------|


  E   Q       S  S  S  T   T   S  S  S  S  S  S  
------------------------------------------------|
--L--15pbr----L-13-15-17p-15p-13----13-12----12-|
---------------------------------14-------12----|
------------------------------------------------|
------------------------------------------------|
------------------------------------------------|


   S  S  T   T  S  S S  S S  S E   S  S  S S  S     S S.  S. S. S.  S H          
------------------------------------------------|-------------------------------|
--10--------------------------------------------|-------------------------------|
-----10-12p-10p-9----9-10-9----9----------------|-------------------------------|
------------------12--------12----12----10-9----|-----9--10-11-12-7g9-7~--------|
-------------------------------------12------10-|--12---------------------------|
------------------------------------------------|-------------------------------|


Lead Violin

                      S S  S  S  E   S  S S  S  S S Q     
E||-------|-------|--------------------------------------|
B||-------|-------|--10-9-10-12-13--12-10-9-10-12-9------|
G||-------|-------|---------------------------------9----|
D||-------|-------|--------------------------------------|
A||-------|-------|--------------------------------------|
E||-------|-------|--------------------------------------|


   S S  S  S  E   S  S S  S  S S Q     
--------------------------------------|
--10-9-10-12-13--12-10-9-10-12-9------|
---------------------------------9----|
--------------------------------------|
--------------------------------------|
--------------------------------------|


   S  S  S  S  E   S  S  S  S  S  S  Q        S  S  S  S  S  S  S  S  H         
--------------12--------------------------|------------------------------------|
--13-12-13-15-----15-13-12-13-15-12-------|--10-12-13-10----10-12----10--------|
------------------------------------12----|--------------13-------13-----------|
------------------------------------------|------------------------------------|
------------------------------------------|------------------------------------|
------------------------------------------|------------------------------------|


   S S  S  S  E   S  S S  S  S S Q        S S  S  S  E   S  S S  S  S S Q     
--------------------------------------|--------------------------------------|
--10-9-10-12-13--12-10-9-10-12-9------|--10-9-10-12-13--12-10-9-10-12-9------|
---------------------------------9----|---------------------------------9----|
--------------------------------------|--------------------------------------|
--------------------------------------|--------------------------------------|
--------------------------------------|--------------------------------------|


   S  S  S  S  E   S  S  S  S  S  S  Q        S  S  S  S  S  S  S  S  H         
--------------12--------------------------|------------------------------------|
--13-12-13-15-----15-13-12-13-15-12-------|--10-12-13-10----10-12----10--------|
------------------------------------12----|--------------13-------13-----------|
------------------------------------------|------------------------------------|
------------------------------------------|------------------------------------|
------------------------------------------|------------------------------------|


   S  S  S  S  Q     S  S  S  S  Q        S  S  S  S  Q     S  S  S  S  Q     
--13-12-------------12----------------|--------------------------------12----|
--------15-13-12-------15-13-12-------|--15-13-12-------------12-13-15-------|
--------------------------------14----|-----------14-13----14----------------|
--------------------------------------|--------------------------------------|
--------------------------------------|--------------------------------------|
--------------------------------------|--------------------------------------|


   S  S  S  S  S  S  S  S  S  S  S  S  Q        S  S  S  S  E   S  S  H         
--13-12-------------15-13-12----------------|----------------------------------|
--------15-13-12-15----------15-13-12-------|--15-13-12------------------------|
--------------------------------------14----|-----------14-13--11-13-14--------|
--------------------------------------------|----------------------------------|
--------------------------------------------|----------------------------------|
--------------------------------------------|----------------------------------|


   S  S  S  S  Q     S  S  S  S  Q        S  S  S  S  Q     S  S  S  S  Q     
--13-12-------------12----------------|--------------------------------12----|
--------15-13-12-------15-13-12-------|--15-13-12-------------12-13-15-------|
--------------------------------14----|-----------14-13----14----------------|
--------------------------------------|--------------------------------------|
--------------------------------------|--------------------------------------|
--------------------------------------|--------------------------------------|


   S  S  S  S  S  S  S  S  S  S  S  S  Q        S  S  S  S  E   S  S  H         
--13-12-------------15-13-12----------------|----------------------------------|
--------15-13-12-15----------15-13-12-------|--15-13-12------------------------|
--------------------------------------14----|-----------14-13--11-13-14--------|
--------------------------------------------|----------------------------------|
--------------------------------------------|----------------------------------|
--------------------------------------------|----------------------------------|


-----------|-----------|-----------|-----------|-----------|-----------|
-----------|-----------|-----------|-----------|-----------|-----------|
-----------|-----------|-----------|-----------|-----------|-----------|
-----------|-----------|-----------|-----------|-----------|-----------|
-----------|-----------|-----------|-----------|-----------|-----------|
-----------|-----------|-----------|-----------|-----------|-----------|


                                                      <     <    <     
              H.           S  T  T  T  T  S     Q     Q     Q    Q     
-----------|--------------------------10-12-|--13----10----12----8----|
-----------|---------------9-10-12-13-------|---------8----13----6----|
-----------|--------------------------------|-------------------------|
-----------|--------------------------------|-------------------------|
-----------|--------------------------------|-------------------------|
-----------|--------------------------------|-------------------------|


   <    <     <     <        <     <     <    <        <    <     <          
   Q    Q     Q     Q        Q     Q     Q    Q        Q    Q     Q    Q     
--10----7-----8----12----|--13----10----12----8----|--10----7-----8---------|
--12----9----10----10----|--10-----8----13----6----|--12----9----10---------|
-------------------------|-------------------------|------------------------|
-------------------------|-------------------------|------------------------|
-------------------------|-------------------------|------------------------|
-------------------------|-------------------------|------------------------|


   <     <     <    <        <    <     <     <        <     <     <    <     
   Q     Q     Q    Q        Q    Q     Q     Q        Q     Q     Q    Q     
--13----10----12----8----|--10----7-----8----12----|--13----10----12----8----|
--10-----8----13----6----|--12----9----10----10----|--10-----8----13----6----|
-------------------------|-------------------------|-------------------------|
-------------------------|-------------------------|-------------------------|
-------------------------|-------------------------|-------------------------|
-------------------------|-------------------------|-------------------------|


   <    <     <                                                     
   Q    Q     Q    Q        S  S  S  S  E   S  S  S  S  S  S  Q     
--10----7-----8---------|------------------------------------------|
--12----9----10---------|--13-12-13-15-16--15-13-12-13-15-12-------|
------------------------|------------------------------------12----|
------------------------|------------------------------------------|
------------------------|------------------------------------------|
------------------------|------------------------------------------|


   S  S  S  S  E   S  S  S  S  S  S  Q     
------------------------------------------|
--13-12-13-15-16--15-13-12-13-15-12-------|
------------------------------------12----|
------------------------------------------|
------------------------------------------|
------------------------------------------|


   S  S  S  S  E   S  S  S  S  S  S  Q        S  S  S  S  S  S  S  S  H         
--------------15--------------------------|------------------------------------|
--16-15-16-18-----18-16-15-16-18-15-------|--13-15-16-13----13-15----13--------|
------------------------------------15----|--------------16-------16-----------|
------------------------------------------|------------------------------------|
------------------------------------------|------------------------------------|
------------------------------------------|------------------------------------|


   S  S  S  S  E   S  S  S  S  S  S  Q     
------------------------------------------|
--13-12-13-15-16--15-13-12-13-15-12-------|
------------------------------------12----|
------------------------------------------|
------------------------------------------|
------------------------------------------|


   S  S  S  S  E   S  S  S  S  S  S  Q     
------------------------------------------|
--13-12-13-15-16--15-13-12-13-15-12-------|
------------------------------------12----|
------------------------------------------|
------------------------------------------|
------------------------------------------|


   S  S  S  S  E   S  S  S  S  S  S  Q        S  S  S  S  S  S  S  S  H         
--------------15--------------------------|------------------------------------|
--16-15-16-18-----18-16-15-16-18-15-------|--13-15-16-13----13-15----13--------|
------------------------------------15----|--------------16-------16-----------|
------------------------------------------|------------------------------------|
------------------------------------------|------------------------------------|
------------------------------------------|------------------------------------|


   S  S  S  S  Q     S  S  S  S  Q        S  S  S  S  Q     S  S  S  S  Q     
--------------12----------------------|--------------12----------------------|
-----12-13-15-------15-13-12----------|-----12-13-15-------15-13-12----------|
--14-------------------------14-13----|--14-------------------------14-13----|
--------------------------------------|--------------------------------------|
--------------------------------------|--------------------------------------|
--------------------------------------|--------------------------------------|


   S  S  S  S  Q     S  S  S  S  Q        S   S  E   S   S E   H         
--------12-13-15----13-12-------------|---------------------------------|
--13-15-------------------15-13-12----|--13p-12-10--12p-10-9--10--------|
--------------------------------------|---------------------------------|
--------------------------------------|---------------------------------|
--------------------------------------|---------------------------------|
--------------------------------------|---------------------------------|


   S S  S  S  E   S  S S  S  S S Q        S S  S  S  E   S  S S  S  S S Q     
--------------------------------------|--------------------------------------|
--10-9-10-12-13--12-10-9-10-12-9------|--10-9-10-12-13--12-10-9-10-12-9------|
---------------------------------9----|---------------------------------9----|
--------------------------------------|--------------------------------------|
--------------------------------------|--------------------------------------|
--------------------------------------|--------------------------------------|


   S  S  S  S  E   S  S  S  S  S  S  Q     
--------------12--------------------------|
--13-12-13-15-----15-13-12-13-15-12-------|
------------------------------------12----|
------------------------------------------|
------------------------------------------|
------------------------------------------|


                                 <                             
   S  S  S  S  S  S  S  S  Q     Q        H        Q.      E   
--------------------------------12----|--13--------L------13--|
--10-12-13-10----10-12----10----------|-----------------------|
--------------13-------13-------------|-----------------------|
--------------------------------------|-----------------------|
--------------------------------------|-----------------------|
--------------------------------------|-----------------------|


   H         H            W                   W                 
--12--------10--------|--12----------------|--L----------------|
----------------------|--------------------|-------------------|
----------------------|--------------------|-------------------|
----------------------|--------------------|-------------------|
----------------------|--------------------|-------------------|
----------------------|--------------------|-------------------|


   W                   W                  
--12----------------|--L----------------||
--------------------|-------------------||
--------------------|-------------------||
--------------------|-------------------||
--------------------|-------------------||
--------------------|-------------------||




Bass

     Q    Q    Q    Q       Q    Q    Q    Q       Q    Q    Q    Q     
G||----------------------|----------------------|----------------------|
D||----------------------|----------------------|----------------------|
A||--0----0--------------|----------------------|--0----0--------------|
E||------------0----0----|--1----1----3----3----|------------0----0----|


  Q    Q    H           Q    Q    Q    Q       Q    Q    Q    Q     
---------------------|----------------------|----------------------|
---------------------|----------------------|----------------------|
---------------------|--0----0--------------|--0----0--------------|
--1----1----3--------|------------0----0----|------------0----0----|


  Q    Q    Q    Q       Q    Q    Q    Q       Q    Q    Q    Q     
----------------------|----------------------|----------------------|
----------------------|----------------------|----------------------|
--3----3--------------|--0---------0----0----|--0----0--------------|
------------3----3----|-------0--------------|------------0----0----|


  Q    Q    Q    Q       Q    Q    Q    Q       Q    Q    Q    Q     
----------------------|----------------------|----------------------|
----------------------|----------------------|----------------------|
--0----0--------------|--3----3--------------|--0---------0----3----|
------------0----0----|------------3----3----|-------0--------------|


  Q    Q    Q    Q       Q    Q    Q    Q       Q    Q    Q    Q     
----------------------|----------------------|----------------------|
----------------------|----------------------|----------------------|
--5---------3---------|--2---------0----3----|--5---------3---------|
-------3---------1----|-------0--------------|-------3---------1----|


  Q    Q    Q    Q       Q    Q    Q    Q       Q    Q    Q    Q     
----------------------|----------------------|----------------------|
----------------------|----------------------|----------------------|
--2---------0----3----|--5---------3---------|--2---------0----3----|
-------0--------------|-------3---------1----|-------0--------------|


  Q    Q    Q    Q       Q    Q    H           Q    Q    Q    Q     
----------------------|---------------------|----------------------|
----------------------|---------------------|----------------------|
--5---------3---------|--2---------0--------|--0----0--------------|
-------3---------1----|-------0-------------|------------0----0----|


  H        H           H        H           Q    Q    H         
--------------------|--------------------|---------------------|
-----------2--------|--------------------|---------------------|
--0-----------------|--3-----------------|--0---------0--------|
--------------------|-----------3--------|-------0-------------|


  H        H           H        H           H        H         
--------------------|--------------------|--------------------|
-----------2--------|-----------2--------|--------------------|
--0-----------------|--0-----------------|--3-----------------|
--------------------|--------------------|-----------3--------|


  Q    Q    Q    Q       Q    Q    Q    Q       Q    Q    Q    Q     
----------------------|----------------------|----------------------|
----------------------|----------------------|----------------------|
--0---------0----3----|--5---------3---------|--2---------0----3----|
-------0--------------|-------3---------1----|-------0--------------|


  Q    Q    Q    Q       Q    Q    Q    Q       Q    Q    Q    Q     
----------------------|----------------------|----------------------|
----------------------|----------------------|----------------------|
--5---------3---------|--2---------0----3----|--5---------3---------|
-------3---------1----|-------0--------------|-------3---------1----|


  Q    Q    Q    Q       Q    Q    Q    Q       Q    Q    H         
----------------------|----------------------|---------------------|
----------------------|----------------------|---------------------|
--2---------0----3----|--5---------3---------|--2---------0--------|
-------0--------------|-------3---------1----|-------0-------------|


  Q    Q    Q    Q       Q    Q    Q    Q       Q    Q    Q    Q     
----------------------|----------------------|----------------------|
----------------------|----------------------|----------------------|
--3----3--------------|--3----3--------------|--6----6--------------|
------------3----3----|------------3----3----|------------6----6----|


  Q    Q    Q    Q       Q    Q    Q    Q       Q    Q    Q    Q     
----------------------|----------------------|----------------------|
----------------------|----------------------|----------------------|
--3---------3----3----|--3----3--------------|--3----3--------------|
-------3--------------|------------3----3----|------------3----3----|


  Q    Q    Q    Q       Q    Q    H           Q    Q    Q    Q     
----------------------|---------------------|----------------------|
----------------------|---------------------|----------------------|
--6----6--------------|--3---------3--------|--0----0--------------|
------------6----6----|-------3-------------|------------0----0----|


  Q    Q    Q    Q       Q    Q    Q    Q       Q    Q    Q    Q     
----------------------|----------------------|----------------------|
----------------------|----------------------|----------------------|
--0----0--------------|--3----3--------------|--0---------0----0----|
------------0----0----|------------3----3----|-------0--------------|


  Q    Q    Q    Q       Q    Q    Q    Q       Q    Q    Q    Q     
----------------------|----------------------|----------------------|
----------------------|----------------------|----------------------|
--0----0--------------|--0----0--------------|--3----3--------------|
------------0----0----|------------0----0----|------------3----3----|


  Q    Q    Q    Q       Q    Q    E  E  Q       E  E  E  E  E  E  E  E   
----------------------|-----------------------|--------------------------|
----------------------|--0----0----0--0--0----|--2--2--2--2--2--2--2--2--|
--0---------0----3----|-----------------------|--------------------------|
-------0--------------|-----------------------|--------------------------|


  E  Q    E  E  E  E  E     E  Q    E  E  E  E  E     W                 
-------------------------|-------------------------|-------------------|
-------------------------|-------------------------|-------------------|
--0--0----0--0--0--0--0--|--0--0----0--0--0--0--0--|--0----------------|
-------------------------|-------------------------|-------------------|


  W                  
-------------------||
-------------------||
--L----------------||
-------------------||





Duration Legend
---------------
W - whole
H - half
Q - quarter
E - 8th
S - 16th
T - 32nd
X - 64th
. - note dotted
|-n-|  - n-tuplets


Tablature Legend
----------------
L - tied note
x - dead note
g - grace note
(n) - ghost note
> - accentuded note
NH - natural harmonic
AH - artificial harmonic
TH - tapped harmonic
SH - semi harmonic
PH - pitch harmonic
h - hammer on
p - pull off
b - bend
br - bendRelease
pb - preBend
pbr - preBendRelease
brb - bendReleaseBend
\n/ - tremolo bar dip
\n - tremolo bar dive
-/n - tremolo bar Release up
/n\ - tremolo bar inverted dip
/n - tremolo bar return
-\n - tremolo bar Release down
S - shift slide
s - legato slide
/ -  slide into from below or out of upwards
\ -  slide into from above or out of downwards
~ - vibrato
W - wide vibrato
tr - trill
TP - tremolo picking
T - tapping
S - slap
P - pop
< - fade in
^ - brush up
v - brush down