Login or Register to remove this ad. | Advertise Here

Aozora no Kakera (Solo) (Zero no Tsukaima) Guitar Tab

Submitted: Aug 26, 2011 by Caldron

0
Download | Listen
Game: Zero no Tsukaima
Composer(s): Mitsumune Shinkichi
Style: Alternate picking, Pinch harmonics, Transcription, Tremolo

AutoScroll: Slow | Medium | Fast
Aozora no Kakera (solo)                                     
Kugimiya Rie

Tabbed by Caldron



Electric Guitar


     H        E    E.    E.       H         Q       Q     
E||--------------------------|---------------------------|
B||--------------------------|---------------------------|
G||--------------4g6---6g8---|--8g9~-------------9g11----|
D||--------------------------|---------------------------|
A||--------------------------|---------------------------|
E||--------------------------|---------------------------|


                |-----3-----|                                                       
   Q.       E   E     E     E     E.    S     E  E  E  E  E   E   T  T T  S   T  S  
------------------------------------------|-----------------------9----------------|
---------------12----12----12-------------|---------9--9-----12b----12-9-----------|
--11b-------x--11pb--11pb--11pb--11br---9-|---------9--9-----------------11br-9-11-|
------------------------------------------|--11------------------------------------|
------------------------------------------|----------------------------------------|
------------------------------------------|----------------------------------------|


  T  T T  T T.  T. T.T. H         S  E     E  Q     E  S S    S S S S E    
----------------------------------------|---------------------------------|
----------------------------------------|-----------9--9------------------|
--9-10-9--------------------------------|--6--8b----L--L-8pbr-6---6-8-6~--|
---------11-9---------------------6h-8--|-----------------------8---------|
---------------11-10-9--8~--------------|---------------------------------|
----------------------------------------|---------------------------------|


                   PH                                                                 
  Q    S E     S   Q     E   E     Q.      Q     Q     E     E   Q      H         E   
--------------------------------|---------/4----/6----/8--|--L--/9----/11~-----------|
-------9------------------------|-------------------------|--------------------------|
--L------8pbr--6----------------|-------------------------|--------------------------|
-----------------<>7~----7b--7--|--6----------------------|--------------------------|
--------------------------------|-------------------------|--------------------------|
--------------------------------|-------------------------|--------------------------|


    Q.      Q      E   Q           H         H          
--/21-------------19-----------|----------------------||
-----------19b-----L--19pbr----|--18~-----------------||
-------------------------------|----------------------||
-------------------------------|----------------------||
-------------------------------|----------------------||
-------------------------------|----------------------||




Duration Legend
---------------
W - whole
H - half
Q - quarter
E - 8th
S - 16th
T - 32nd
X - 64th
. - note dotted
|-n-|  - n-tuplets


Tablature Legend
----------------
L - tied note
x - dead note
g - grace note
(n) - ghost note
> - accentuded note
NH - natural harmonic
AH - artificial harmonic
TH - tapped harmonic
SH - semi harmonic
PH - pitch harmonic
h - hammer on
p - pull off
b - bend
br - bendRelease
pb - preBend
pbr - preBendRelease
brb - bendReleaseBend
\n/ - tremolo bar dip
\n - tremolo bar dive
-/n - tremolo bar Release up
/n\ - tremolo bar inverted dip
/n - tremolo bar return
-\n - tremolo bar Release down
S - shift slide
s - legato slide
/ -  slide into from below or out of upwards
\ -  slide into from above or out of downwards
~ - vibrato
W - wide vibrato
tr - trill
TP - tremolo picking
T - tapping
S - slap
P - pop
< - fade in
^ - brush up
v - brush down