Login or Register to remove this ad. | Advertise Here

Anger? Love? (Zero no Tsukaima) Guitar Tab

Submitted: Sep 04, 2011 by Caldron

5
Average: 5 (1 vote)
Download | Listen
Game: Zero no Tsukaima
Composer(s): Mitsumune Shinkichi
Style: Alternate picking, Transcription, Tremolo, Trill

AutoScroll: Slow | Medium | Fast
Anger? Love?                                           
Mitsumune Shinkichi

Tabbed by Caldron


Electric Guitar

     H.           Q       H.           E  E     H.           E.  S     S S  Q    H        E   
E||--------------------|---------------------|----------------------|------------------------|
B||--------------------|---------------------|----------------------|------------------------|
G||--5-----------------|---------------------|--5-------------------|------------------------|
D||--5-----------------|---------------------|--5----------------3p-|--1-3h-5----------------|
A||--------------------|------------------3--|--L-------------------|------------------------|
E||--------------------|---------------------|----------------------|------------------------|


  Q.     E  H           Q.       E  Q.     E     Q.       E  Q.     E    
---------------------|------------------------|-------------------------|
---------------------|------------------------|-------------------------|
---------------------|--5------3g5------------|--5------3g5-------------|
--5------5-----------|--5--------5------------|--5--------5-------------|
--3------3-----------|---------------------3--|---------------------6s--|
---------------------|------------------------|-------------------------|


  E  E.  S E.  S  S S Q       E  E  E  E  H           E  E  E  Q.     Q     
---------------------------|-----------------------|-----------------------|
---------------------------|-----------------------|-----------------------|
-----5---3-----3h-5---5----|-----------------------|-----------------------|
-----5-----5---------------|--3--3--1--3-----------|--x--3--1--3-----------|
--5------------------------|--3--3--1--3-----------|--x--3--1--3-----------|
---------------------------|--1--1-----1-----------|-----1-----1-----------|


  E  E  E  E  H           E  E  H.              E  E  E  E  H           E  E  E  E  H         
-----------------------|---------------------|-----------------------|-----------------------|
-----------------------|---------------------|-----------------------|-----------------------|
-----------------------|---------------------|-----------------------|-----------------------|
--3--3--1--3-----------|--3--3---------------|--5--5--3--5-----------|--5--5--3--5-----------|
--3--3--1--3-----------|--3--3---------------|--5--5--3--5-----------|--5--5--3--5-----------|
--1--1-----1-----------|---------------------|--3--3-----3-----------|--3--3-----3-----------|


  E  E  E  E  H           Q    H        E  E     Q    S S S  E  Q    S E   
-----------------------|----------------------|---------------------------|
-----------------------|----------------------|---------------------------|
-----------------------|----------------7--5--|--5------------------------|
--5--5--3--5-----------|--5-------------------|-------8---5h-8------------|
--5--5--3--5-----------|--5-------------------|------------------------6--|
--3--3-----3-----------|----------------------|----------------------8----|


  Q.     S S S  S Q    E     E  E   E  E  E  E  E  E     E  E  S S E  E  Q    E   
--------------------------|---------------------------|--------------------------|
--------------------------|---------------------------|--------------------------|
--------------------------|---------------------------|-----3--5-3----3--5-------|
--------------------------|------------------------3--|--5---------5-------------|
--8------6---8p-6---------|---------------3--5--6-----|--------------------------|
-----------8------8-------|-----1s--3--6--------------|--------------------------|


                                                                  tr                    
  E   H         E  E   E      E.    S  S   S  E   S   E.  Q       W                     
--------------------------|------------------------------------|-----------------------|
--------------------------|------------------------------------|-----------------------|
-----10b--------L--8--10--|--10pb---8--------------------------|--8(10)----------------|
--------------------------|-----------10h-13-10--13p-10--------|-----------------------|
--------------------------|------------------------------------|-----------------------|
--------------------------|------------------------------------|-----------------------|


   Q     E.   S   E  S  S E   E      E.  S Q.     E    E   E      H         S S  E   Q     
---------------------------------|-----------------------------|--------------------------|
---------------------------------|----------------6s--13--11b--|--L-------------13--------|
--12~----------------------------|-----------------------------|-----------12-------12----|
-------------11s-10--8----8--10--|--10---8---------------------|--------------------------|
-----------------------10--------|-----------------------------|--------------------------|
---------------------------------|-----------------------------|--------------------------|


                                                                       |---3---|   |---3---|   
   S  S  S  E      S  S S  E   T   T  T   E   E  T     E   E   E   E   E   E   E   E   E   E   
---------------------------------------------------|------------------------------------------|
---------------------------------------------------|------------------11------11--13--11--13--|
--10----10-10pbr-----10----------------------------|------10--11--12------12------------------|
-----13-----------10------13--13p-10---------10----|--13--------------------------------------|
-------------------------------------13p-10--------|------------------------------------------|
---------------------------------------------------|------------------------------------------|


   H         E   Q      E      E   E   E   Q     Q.        E   H          E     E     E     
---------------------------|----------------------------|-----13b--------13pb--13pb--13pb--|
--13b--------L--13b----11--|--13------11--11b-----------|----------------13----13----13----|
---------------------------|--12--12------12------------|----------------------------------|
---------------------------|----------------------------|----------------------------------|
---------------------------|----------------------------|----------------------------------|
---------------------------|----------------------------|----------------------------------|


   H           S  Q.      S    H         E   E   E   E      Q        Q        E.   S  S E.   
--13pb--------11------------|---------------------------|-----------------------------------|
-----------------14b------L-|--L--------13--13--13--13--|--13----11g13----11g13-------------|
----------------------------|---------------------------|-------------------------\8-10-8---|
----------------------------|---------------------------|-----------------------------------|
----------------------------|---------------------------|-----------------------------------|
----------------------------|---------------------------|-----------------------------------|


   E.    S  S  S  S  S   S  S  S   S    S  S S T  T     Q    S S Q     S E.   E   
----------------------------------------------------|----------------------------|
----------------------------------------------------|----------------------------|
---8h---10p-8-10p-8-10br-8-10-10b-10pbr-8------8----|----------------------------|
------------------------------------------10-8---10-|----------------------------|
----------------------------------------------------|--\8----6---6~--------------|
----------------------------------------------------|----------8-------8-6\------|


  |--3--|  |--3--|  |--3--|  |--3--|                               
  E  E  E  E  E  E  E  E  E  Q     E     Q.      Q.       Q        
--------------------------------------|---------------------------|
--------------------------4--6~----4--|---------11b------11pbr----|
--------------------3--5--------------|---------------------------|
-----------3--4--5--------------------|---------------------------|
-----3--5-----------------------------|---------------------------|
--------------------------------------|---------------------------|


    S  E   S  E   S  E   S  E   S  E   S   
------11-----11-----11-----11-----11--13b-|
--/13-----13-----13-----13-----13---------|
------------------------------------------|
------------------------------------------|
------------------------------------------|
------------------------------------------|


   S  S  S  S     S  S  S  S  S  S  S   S  S    S E     H        E   Q.      
--13-11-13-13pbr-11----11----------------------------|----------------------|
--------------------13----11-13----11----------------|----------------------|
--------------------------------12----\10-10pbr-8----|--8--------L\---------|
-----------------------------------------------------|----------------------|
-----------------------------------------------------|----------------------|
-----------------------------------------------------|----------------------|


-------------------||
-------------------||
-------------------||
-------------------||
-------------------||
-------------------||




Duration Legend
---------------
W - whole
H - half
Q - quarter
E - 8th
S - 16th
T - 32nd
X - 64th
. - note dotted
|-n-|  - n-tuplets


Tablature Legend
----------------
L - tied note
x - dead note
g - grace note
(n) - ghost note
> - accentuded note
NH - natural harmonic
AH - artificial harmonic
TH - tapped harmonic
SH - semi harmonic
PH - pitch harmonic
h - hammer on
p - pull off
b - bend
br - bendRelease
pb - preBend
pbr - preBendRelease
brb - bendReleaseBend
\n/ - tremolo bar dip
\n - tremolo bar dive
-/n - tremolo bar Release up
/n\ - tremolo bar inverted dip
/n - tremolo bar return
-\n - tremolo bar Release down
S - shift slide
s - legato slide
/ -  slide into from below or out of upwards
\ -  slide into from above or out of downwards
~ - vibrato
W - wide vibrato
tr - trill
TP - tremolo picking
T - tapping
S - slap
P - pop
< - fade in
^ - brush up
v - brush down