Login or Register to remove this ad. | Advertise Here

Valestein Castle (Ys: The Oath in Felghana) Guitar Tab

Submitted: Sep 01, 2010 by Kiku (Last updated: Sep 10, 2011)

5
Average: 5 (3 votes)
Download | Listen
Game: Ys: The Oath in Felghana
Composer(s): Mieko Ishikawa, Masaaki Kawai
Style: Transcription
Series: Ys

AutoScroll: Slow | Medium | Fast
                               Valestein Castle                                 


                                                           Falcom Sound Team jdk
Guitar



      H.            Q        Q.      S  S  E   S  S  S  S  S  S  
E||--17~-----------------|----------------13-----12-------------|
B||----------------------|-------------15-----15----13-15-12-13-|
G||----------------------|--13------16--------------------------|
D||----------------------|--------------------------------------|
A||----------------------|--------------------------------------|
E||----------------------|--------------------------------------|


   S  Q    S  S  S  S  Q     S E       S Q    S S S S S Q     S  S  
-----12---------15------------------|---------------------------17-|
--15---------15----15-15b-----------|------------------------15----|
-------------------------------7br--|--L-6------6---6-7-9----------|
------------------------------------|---------7---7----------------|
------------------------------------|------------------------------|
------------------------------------|------------------------------|


   S  S  S  S  S  S  H         S  S     S  S  S  S  S  S  Q.      S  S  E   
--12-17-13-17----17-15-----------15-|--10-15-12-15-10-15-12------10-12-13--|
--------------15--------------13----|--------------------------------------|
------------------------------------|--------------------------------------|
------------------------------------|--------------------------------------|
------------------------------------|--------------------------------------|
------------------------------------|--------------------------------------|


       tr                                                       
   E   Q         E   E   E   E   E      E   Q     Q     Q.      
---L--12(13)----10----------12------|--------------------------|
--------------------12--13------12--|--------------------------|
------------------------------------|--12--14----14----13------|
------------------------------------|--------------------------|
------------------------------------|--------------------------|
------------------------------------|--------------------------|


   W                    S S  S S Q     S S  S E  S S  S  
--------------------|----------------------------7-8-10-|
--------------------|--10-8-10--------10-8-10-----------|
--14----------------|----------9-L------------9---------|
--------------------|-----------------------------------|
--------------------|-----------------------------------|
--------------------|-----------------------------------|


   Q     Q     Q     Q       Q    S S  S E.  S S  S S S  S  
--12----10----------------|--------------------------------|
--------------13----12----|--------------------------------|
--------------------------|--------------9---7-9----7------|
--------------------------|--7----7-9-10---------10---9-10-|
--------------------------|--------------------------------|
--------------------------|--------------------------------|


   Q     S S S E  S  S S S  S S S    Q    S S  S E.  S S  S S S  S  
----------------------------------|--------------------------------|
---------------8------------------|--------------------------------|
-------------7----9-10-7-9----7---|--------------9---7-9----7------|
-----------9---------------10---9-|--7----7-9-10---------10---9-10-|
--10----10------------------------|--------------------------------|
----------------------------------|--------------------------------|


  E  S  E  S  S S Q    S S  S  S     Q    S  S  S  S  Q     E   E   
---------------------------------|----------10-12-13-10--------10--|
-----------8----8--------9-10-12-|--13---------------------12------|
--7--9-10----10---9--------------|---------------------------------|
---------------------------------|---------------------------------|
---------------------------------|---------------------------------|
---------------------------------|---------------------------------|


   E   E   E   E   Q.      E      Q    S  S  S  S  Q    S  S  S  S  
--16--13--12--16--------------|------------------------------------|
------------------13------12--|-------------------13---------12-13-|
------------------------------|--14---------12-14---------14-------|
------------------------------|----------15------------------------|
------------------------------|------------------------------------|
------------------------------|------------------------------------|


   Q.      S  S  H            Q     S  S  S  S  E   E   E   S  S  
----------------12--------|--12----12----------------------------|
--12---------12-----------|-----------15-13-15---------12--13-15-|
----------14--------------|--------------------14--14------------|
--------------------------|--------------------------------------|
--------------------------|--------------------------------------|
--------------------------|--------------------------------------|


   Q     S  S  S  S  E   E   E   S  S     Q     S  S  S  S  E   E   E   E   
--12----12----------------------------|--12----12--------------------------|
-----------15-13-15---------12--13-15-|-----------15-13-15---------12------|
--------------------14--14------------|--------------------14--14------12--|
--------------------------------------|------------------------------------|
--------------------------------------|------------------------------------|
--------------------------------------|------------------------------------|


   Q.     S  T  T  Q    S  S  S  S     Q     S  S  S  S  E   E   E   S  S  
-----------------------------------|--12----12----------------------------|
--15--------13-12-13------12-13-15-|-----------15-13-15---------12--13-15-|
-----------------------------------|--------------------14--14------------|
-----------------------------------|--------------------------------------|
-----------------------------------|--------------------------------------|
-----------------------------------|--------------------------------------|


   Q     S  S  S  S  E   E   E   S  S     Q     S  S  S  S  E   E   E   E   
--12----12----------------------------|--12----12--------------------------|
-----------15-13-15---------12--13-15-|-----------15-13-15---------12------|
--------------------14--14------------|--------------------14--14------12--|
--------------------------------------|------------------------------------|
--------------------------------------|------------------------------------|
--------------------------------------|------------------------------------|


   Q.     S S   H             S  S  S  E   S  S  S  S S  S S  S S  S S  
------------5s-17~--------|-----------12--10---------------------------|
--------------------------|--10-12-13--------13-12-10---12---13---10---|
--14----------------------|---------------------------9----9----9----9-|
--------------------------|--------------------------------------------|
--------------------------|--------------------------------------------|
--------------------------|--------------------------------------------|


   S S  S S  S S  S S  S S S S  S S  S S  
--10-------------------------------------|
-------13---12---10---12-------12--------|
-----9----9----9----9----9-8-9----9-10-9-|
-----------------------------------------|
-----------------------------------------|
-----------------------------------------|


   S S  S S  S S  S S  S S  S S  S S  S S  
------------------------------------------|
--10---12---13---10---12--------10---13---|
-----9----9----9----9----9-12-9----9----9-|
------------------------------------------|
------------------------------------------|
------------------------------------------|


   S S S S S S S S  S S S S  S S S S  
-----------8-------10----------------|
--12------------------------12-------|
-----9-8-9---9-8-9----9-8-9----9-8-9-|
-------------------------------------|
-------------------------------------|
-------------------------------------|


   S  S  S  E   S  S  S  S S  S S  S S  S S  
-----------12--10---------------------------|
--10-12-13--------13-12-10---12---13---10---|
---------------------------9----9----9----9-|
--------------------------------------------|
--------------------------------------------|
--------------------------------------------|


   S S  S S  S S  S S  S S S S  S S  S S  
--10-------------------------------------|
-------13---12---10---12-------12--------|
-----9----9----9----9----9-8-9----9-10-9-|
-----------------------------------------|
-----------------------------------------|
-----------------------------------------|


   S S  S S  S S  S S  S S  S S  S S  S S  
------------------------------------------|
--10---12---13---10---12--------10---13---|
-----9----9----9----9----9-12-9----9----9-|
------------------------------------------|
------------------------------------------|
------------------------------------------|


   S S S S S S S S  S S S S  S S S S     Q     S  S  S  S  H         
-----------8-------10----------------|-----------------10-12--------|
--12------------------------12-------|--13-----L-12-13--------------|
-----9-8-9---9-8-9----9-8-9----9-8-9-|------------------------------|
-------------------------------------|------------------------------|
-------------------------------------|------------------------------|
-------------------------------------|------------------------------|


   Q     Q     Q     Q        Q    S  S  S  S  Q    S  S  S  S  
--10----------------13----|--12---------10---------------------|
--------13----12----------|----------12----13-12---------12-10-|
--------------------------|---------------------------12-------|
--------------------------|------------------------------------|
--------------------------|------------------------------------|
--------------------------|------------------------------------|


  Q    S S  S  S E  E   E   E      Q     S  S  S  S  H         
-------------------------------|-----------------10-12--------|
-----------------------10--12--|--13-----L-12-13--------------|
--9-----------------9----------|------------------------------|
---------9-12-10-9-------------|------------------------------|
-------------------------------|------------------------------|
-------------------------------|------------------------------|


   Q     S  S  S  S  Q     Q        H.            S S  S  S  
--10-----L----------10----------|---------------------------|
-----------13-12-13-------12----|--10-------------L-9-10-12-|
--------------------------------|---------------------------|
--------------------------------|---------------------------|
--------------------------------|---------------------------|
--------------------------------|---------------------------|


   H.            S  S  S  S     W                 
-------------------------10-|--12----------------|
--13-------------L-12-13----|--------------------|
----------------------------|--------------------|
----------------------------|--------------------|
----------------------------|--------------------|
----------------------------|--------------------|


   S  S  S  S S  S S  S S  S S  Q    S     Q     S  S  S  S  H         
--12-12-12-12---12---12---12---16------|--------------------10--------|
---------------------------------------|--13-----L-10-12-13-----------|
---------------------------------------|------------------------------|
---------------------------------------|------------------------------|
---------------------------------------|------------------------------|
---------------------------------------|------------------------------|


   Q    S S  S E.  S S  S S S  S     Q     S S S E  S  S S S  S S S  
--12-----------------------------|----------------------------------|
---------------------------------|---------------8------------------|
---------------9---7-9----7------|-------------7----9-10-7-9----7---|
--------7-9-10---------10---9-10-|-----------9---------------10---9-|
---------------------------------|--10----10------------------------|
---------------------------------|----------------------------------|


  Q    S S  S E.  S S  S S S  S    E  S  E  S  S S Q    S S  S  S  
--------------------------------|---------------------------------|
--------------------------------|-----------8----8--------9-10-12-|
--------------9---7-9----7------|--7--9-10----10---9--------------|
--7----7-9-10---------10---9-10-|---------------------------------|
--------------------------------|---------------------------------|
--------------------------------|---------------------------------|


   Q    S  S  S  S  Q     E   E      E   E   E   E   Q.      E   
----------10-12-13-10--------10--|--16--13--12--16--------------|
--13---------------------12------|------------------13------12--|
---------------------------------|------------------------------|
---------------------------------|------------------------------|
---------------------------------|------------------------------|
---------------------------------|------------------------------|


   Q    S  S  S  S  Q    S  S  S  S     Q.      S  S  H         
------------------------------------|----------------12--------|
-------------------13---------12-13-|--12---------12-----------|
--14---------12-14---------14-------|----------14--------------|
----------15------------------------|--------------------------|
------------------------------------|--------------------------|
------------------------------------|--------------------------|


   Q     S  S  S  S  E   E   E   S  S     Q     S  S  S  S  E   E   E   S  S  
--12----12----------------------------|--12----12----------------------------|
-----------15-13-15---------12--13-15-|-----------15-13-15---------12--13-15-|
--------------------14--14------------|--------------------14--14------------|
--------------------------------------|--------------------------------------|
--------------------------------------|--------------------------------------|
--------------------------------------|--------------------------------------|


   Q     S  S  S  S  E   E   E   E      Q.     S  T  T  Q    S  S  S  S  
--12----12--------------------------|-----------------------------------|
-----------15-13-15---------12------|--15--------13-12-13------12-13-15-|
--------------------14--14------12--|-----------------------------------|
------------------------------------|-----------------------------------|
------------------------------------|-----------------------------------|
------------------------------------|-----------------------------------|


   Q     S  S  S  S  E   E   E   S  S     Q     S  S  S  S  E   E   E   S  S  
--12----12----------------------------|--12----12----------------------------|
-----------15-13-15---------12--13-15-|-----------15-13-15---------12--13-15-|
--------------------14--14------------|--------------------14--14------------|
--------------------------------------|--------------------------------------|
--------------------------------------|--------------------------------------|
--------------------------------------|--------------------------------------|


   Q     S  S  S  S  E   E   E   E   
--12----12--------------------------|
-----------15-13-15---------12------|
--------------------14--14------12--|
------------------------------------|
------------------------------------|
------------------------------------|


                Start sliding down during this note 
   Q.     S S   H                                   
------------5s-17~---------------------------------|
---------------------------------------------------|
--14-----------------------------------------------|
---------------------------------------------------|
---------------------------------------------------|
---------------------------------------------------|


   E  E  E   E  E   S S S S S S      S S S S S S S S  S S S S S S E    
----------------------------------|-----------------------------------|
----------------------------------|-----------------------------------|
------5--5~--5--5~----------------|-----------------------5-----5-7b--|
--------------------7-5---5-------|----5----------------5---5-7-------|
--\5--------------------7---5-5br-|--L-----------3-5s-7---------------|
----------------------------------|------5-8-3-5----------------------|


    E   H           S  S  S  S  E    
------------------------------------|
----------------------13-15-13-15b--|
--/14--14\~--------14---------------|
------------------------------------|
------------------------------------|
------------------------------------|


   S    E    S  S    S  S    S  S  S  E   Q     
------------15------15------15-----------------|
--15pb-15b-----15pb----15pb----15-13-15--13----|
-----------------------------------------------|
-----------------------------------------------|
-----------------------------------------------|
-----------------------------------------------|


    S  E   Q       E      S  S  S  S  S  E       Q     S  S  S  S  H           
------17--------------------------17----21b--|--20----17-20-15-17-17\~--------|
--/17-----20b~----20br~--17----17----17------|--------------------------------|
----------------------------19---------------|--------------------------------|
---------------------------------------------|--------------------------------|
---------------------------------------------|--------------------------------|
---------------------------------------------|--------------------------------|


   S  S  S  S  E    S  E    S  E    S  S  T   T  T   T  
-------------------------------------------------------|
-------------------20------20------20------------------|
-----17-19-17-19b-----19b-----19b-----19-19p-17--------|
--19--------------------------------------------19p-17-|
-------------------------------------------------------|
-------------------------------------------------------|


   E.     S  S  S  S  S  Q     S  S  S  S  
------------------------------------------|
---------------------------------12-13-15-|
--19br---17-19-17-17-19-19b---------------|
------------------------------------------|
------------------------------------------|
------------------------------------------|


   Q     S  S  S  S  E   E   E   S  S     Q     S  S  S  S  E   E   E   S  S  
--12----12----------------------------|--12----12----------------------------|
-----------15-13-15---------12--13-15-|-----------15-13-15---------12--13-15-|
--------------------14--14------------|--------------------14--14------------|
--------------------------------------|--------------------------------------|
--------------------------------------|--------------------------------------|
--------------------------------------|--------------------------------------|


   Q     S  S  S  S  E   E   E   E      Q.     S  T  T  Q    S  S  S  S  
--12----12--------------------------|-----------------------------------|
-----------15-13-15---------12------|--15--------13-12-13------12-13-15-|
--------------------14--14------12--|-----------------------------------|
------------------------------------|-----------------------------------|
------------------------------------|-----------------------------------|
------------------------------------|-----------------------------------|


   Q     S  S  S  S  E   E   E   S  S     Q     S  S  S  S  E   E   E   S  S  
--12----12----------------------------|--12----12----------------------------|
-----------15-13-15---------12--13-15-|-----------15-13-15---------12--13-15-|
--------------------14--14------------|--------------------14--14------------|
--------------------------------------|--------------------------------------|
--------------------------------------|--------------------------------------|
--------------------------------------|--------------------------------------|


   Q     S  S  S  S  E   E   E   E      Q.     S S   H          
--12----12--------------------------|------------5s-17~--------|
-----------15-13-15---------12------|--------------------------|
--------------------14--14------12--|--14----------------------|
------------------------------------|--------------------------|
------------------------------------|--------------------------|
------------------------------------|--------------------------|


   S S  S S Q     S S  S E  S S  S     Q     Q     Q     Q     
----------------------------7-8-10-|--12----10----------------|
--10-8-10--------10-8-10-----------|--------------13----12----|
----------9-L------------9---------|--------------------------|
-----------------------------------|--------------------------|
-----------------------------------|--------------------------|
-----------------------------------|--------------------------|


   S S  S  S  Q     S S  S E  S S  S     Q     Q     Q     Q     
----------12--L---------------7-8-10-|--12----10----------------|
--10-8-10----------10-8-10-----------|--------------13----12----|
---------------------------9---------|--------------------------|
-------------------------------------|--------------------------|
-------------------------------------|--------------------------|
-------------------------------------|--------------------------|


  Q    S S  S E.  S S  S S S  S     Q     S S S E  S  S S S  S S S  
--------------------------------|----------------------------------|
--------------------------------|---------------8------------------|
--------------9---7-9----7------|-------------7----9-10-7-9----7---|
--7----7-9-10---------10---9-10-|-----------9---------------10---9-|
--------------------------------|--10----10------------------------|
--------------------------------|----------------------------------|


  Q    S S  S E.  S S  S S S  S    E  S  E  S  S S Q    S S  S  S  
--------------------------------|---------------------------------|
--------------------------------|-----------8----8--------9-10-12-|
--------------9---7-9----7------|--7--9-10----10---9--------------|
--7----7-9-10---------10---9-10-|---------------------------------|
--------------------------------|---------------------------------|
--------------------------------|---------------------------------|


   Q    S  S  S  S  Q     E   E      E   E   E   E   Q.      E   
----------10-12-13-10--------10--|--16--13--12--16--------------|
--13---------------------12------|------------------13------12--|
---------------------------------|------------------------------|
---------------------------------|------------------------------|
---------------------------------|------------------------------|
---------------------------------|------------------------------|


   Q    S  S  S  S  Q    S  S  S  S     Q.      S  S  H         
------------------------------------|----------------12--------|
-------------------13---------12-13-|--12---------12-----------|
--14---------12-14---------14-------|----------14--------------|
----------15------------------------|--------------------------|
------------------------------------|--------------------------|
------------------------------------|--------------------------|


   Q     S  S  S  S  E   E   E   S  S     Q     S  S  S  S  E   E   E   S  S  
--12----12----------------------------|--12----12----------------------------|
-----------15-13-15---------12--13-15-|-----------15-13-15---------12--13-15-|
--------------------14--14------------|--------------------14--14------------|
--------------------------------------|--------------------------------------|
--------------------------------------|--------------------------------------|
--------------------------------------|--------------------------------------|


   Q     S  S  S  S  E   E   E   E      Q.     S  T  T  Q    S  S  S  S  
--12----12--------------------------|-----------------------------------|
-----------15-13-15---------12------|--15--------13-12-13------12-13-15-|
--------------------14--14------12--|-----------------------------------|
------------------------------------|-----------------------------------|
------------------------------------|-----------------------------------|
------------------------------------|-----------------------------------|


   Q     S  S  S  S  E   E   E   S  S     Q     S  S  S  S  E   E   E   S  S  
--12----12----------------------------|--12----12----------------------------|
-----------15-13-15---------12--13-15-|-----------15-13-15---------12--13-15-|
--------------------14--14------------|--------------------14--14------------|
--------------------------------------|--------------------------------------|
--------------------------------------|--------------------------------------|
--------------------------------------|--------------------------------------|


   Q     S  S  S  S  E   E   E   E      Q.     S S   H          
--12----12--------------------------|------------5s-17~--------|
-----------15-13-15---------12------|--------------------------|
--------------------14--14------12--|--14----------------------|
------------------------------------|--------------------------|
------------------------------------|--------------------------|
------------------------------------|--------------------------|


   S  S  S  E   S  S  S  S S  S S  S S  S S  
-----------12--10---------------------------|
--10-12-13--------13-12-10---12---13---10---|
---------------------------9----9----9----9-|
--------------------------------------------|
--------------------------------------------|
--------------------------------------------|


   S S  S S  S S  S S  S S S S  S S  S S  
--10-------------------------------------|
-------13---12---10---12-------12--------|
-----9----9----9----9----9-8-9----9-10-9-|
-----------------------------------------|
-----------------------------------------|
-----------------------------------------|


   S S  S S  S S  S S  S S  S S  S S  S S  
------------------------------------------|
--10---12---13---10---12--------10---13---|
-----9----9----9----9----9-12-9----9----9-|
------------------------------------------|
------------------------------------------|
------------------------------------------|


   S S S S S S S S  S S S S  S S S S  
-----------8-------10----------------|
--12------------------------12-------|
-----9-8-9---9-8-9----9-8-9----9-8-9-|
-------------------------------------|
-------------------------------------|
-------------------------------------|


   S  S  S  E   S  S  S  S S  S S  S S  S S  
-----------12--10---------------------------|
--10-12-13--------13-12-10---12---13---10---|
---------------------------9----9----9----9-|
--------------------------------------------|
--------------------------------------------|
--------------------------------------------|


   S S  S S  S S  S S  S S S S  S S  S S  
--10-------------------------------------|
-------13---12---10---12-------12--------|
-----9----9----9----9----9-8-9----9-10-9-|
-----------------------------------------|
-----------------------------------------|
-----------------------------------------|


   S S  S S  S S  S S  S S  S S  S S  S S  
------------------------------------------|
--10---12---13---10---12--------10---13---|
-----9----9----9----9----9-12-9----9----9-|
------------------------------------------|
------------------------------------------|
------------------------------------------|


   S S S S S S S S  S S S S  S S S S     Q     S  S  S  S  H         
-----------8-------10----------------|-----------------10-12--------|
--12------------------------12-------|--13-----L-12-13--------------|
-----9-8-9---9-8-9----9-8-9----9-8-9-|------------------------------|
-------------------------------------|------------------------------|
-------------------------------------|------------------------------|
-------------------------------------|------------------------------|


   Q     Q     Q     Q        Q    S  S  S  S  Q    S  S  S  S  
--10----------------13----|--12---------10---------------------|
--------13----12----------|----------12----13-12---------12-10-|
--------------------------|---------------------------12-------|
--------------------------|------------------------------------|
--------------------------|------------------------------------|
--------------------------|------------------------------------|


  Q    S S  S  S E  E   E   E      Q     S  S  S  S  H         
-------------------------------|-----------------10-12--------|
-----------------------10--12--|--13-----L-12-13--------------|
--9-----------------9----------|------------------------------|
---------9-12-10-9-------------|------------------------------|
-------------------------------|------------------------------|
-------------------------------|------------------------------|


   Q     S  S  S  S  Q     Q        H.            S S  S  S  
--10-----L----------10----------|---------------------------|
-----------13-12-13-------12----|--10-------------L-9-10-12-|
--------------------------------|---------------------------|
--------------------------------|---------------------------|
--------------------------------|---------------------------|
--------------------------------|---------------------------|


   H.            S  S  S  S     W                 
-------------------------10-|--12----------------|
--13-------------L-12-13----|--------------------|
----------------------------|--------------------|
----------------------------|--------------------|
----------------------------|--------------------|
----------------------------|--------------------|


   S  S  S  S S  S S  S S  S S  Q    S     Q     S  S  S  S  Q     S  S  S  S  
--12-12-12-12---12---12---12---16------|--------------------10-----L-------10-|
---------------------------------------|--13-----L-10-12-13----------12-13----|
---------------------------------------|--------------------------------------|
---------------------------------------|--------------------------------------|
---------------------------------------|--------------------------------------|
---------------------------------------|--------------------------------------|


   E  E   E  S  H         S               
--12-----12----17~----------|-----------||
----------------------------|-----------||
----------------------------|-----------||
----------------------------|-----------||
----------------------------|-----------||
----------------------------|-----------||




Duration Legend
---------------
W - whole
H - half
Q - quarter
E - 8th
S - 16th
T - 32nd
X - 64th
. - note dotted
|-n-|  - n-tuplets


Tablature Legend
----------------
L - tied note
x - dead note
g - grace note
(n) - ghost note
> - accentuded note
NH - natural harmonic
AH - artificial harmonic
TH - tapped harmonic
SH - semi harmonic
PH - pitch harmonic
h - hammer on
p - pull off
b - bend
br - bendRelease
pb - preBend
pbr - preBendRelease
brb - bendReleaseBend
\n/ - tremolo bar dip
\n - tremolo bar dive
-/n - tremolo bar Release up
/n\ - tremolo bar inverted dip
/n - tremolo bar return
-\n - tremolo bar Release down
S - shift slide
s - legato slide
/ -  slide into from below or out of upwards
\ -  slide into from above or out of downwards
~ - vibrato
W - wide vibrato
tr - trill
TP - tremolo picking
T - tapping
S - slap
P - pop
< - fade in
^ - brush up
v - brush down

4 comments on Valestein Castle

Great tab Kiku. Might cover

Great tab Kiku.
Might cover this with a few variations.

Oh, god yes! Thank you so

5

Oh, god yes! Thank you so much!

You're welcome. :) Expect the

You're welcome. :) Expect the solo to be tabbed sometime in the near future.

I love this. MOAR :P

5

I love this. MOAR :P