Login or Register to remove this ad. | Advertise Here

Steeling the Will to Fight (Ys: The Oath in Felghana) Guitar Tab

Submitted: Aug 22, 2011 by BacardiBreezer (Last updated: Aug 22, 2011)

5
Average: 5 (2 votes)
Download | Listen
Game: Ys: The Oath in Felghana
Composer(s): Mieko Ishikawa, Masaaki Kawai
Style: Alternate picking, Transcription
Series: Ys

AutoScroll: Slow | Medium | Fast
Steeling the Will to Fight
Ys: The Oath in Felghana
Composer: Yukihiro Jindo
Tabbed by: Bacardibreezer, with some help from Auriplane
8/5/11

Neck pickup

e|-----------------------------------------|-----------------------------------------|
B|--17--15~---13--15~---12--13~------------|--17--15~---13--15~---12--13~---15--17~--|
G|--------------------------------14--13~--|-----------------------------------------|
D|-----------------------------------------|-----------------------------------------|
A|-----------------------------------------|-----------------------------------------|
E|-----------------------------------------|-----------------------------------------|

Bridge pickup

e|------------------------------------------------|
B|--------------------8-5-------------------------|
G|--5-4---------4-5-5-----7----------4-5-5-7-4~---|
D|------7~----7--------------------7--------------|
A|------------------------------------------------|
E|------------------------------------------------|

e|---------------------------------------------|
B|--------------------8-5------4-5-------------|
G|--5-4---------4-5-5-----7--------4-7-5-------|
D|------7~----7--------------------------7~----|
A|---------------------------------------------|
E|---------------------------------------------|

Neck pickup

e|------------------------------------------12--13--15------------------------|
B|---------12--13--15----12--13--15---------------------12-----13--12---------|
G|---14~-----------------------------12--------------------------------14-----|
D|-------------------------------------------------------------------------14-|
A|----------------------------------------------------------------------------|
E|----------------------------------------------------------------------------|

e|----------------------------------------------------------|
B|----------------------------12--13--12~-------------------|
G|--------------------14--14-----------------14-16-14-13~---|
D|--15~--12--14-15------------------------------------------|
A|----------------------------------------------------------|
E|----------------------------------------------------------|

e|-----------------------------|--15--13------12~-------------------------------|
B|-----------------------15-17-|----------15--------12--15--13~---12------------|
G|--14----14-16-17-16-17-------|--------------------------------------13--14~---|
D|-----14----------------------|------------------------------------------------|
A|-----------------------------|------------------------------------------------|
E|-----------------------------|------------------------------------------------|

e|-----------------------------|--15--13------12~-----------------------------------------------16--17~~---|
B|-----------------------15-17-|----------15--------12--15--13~---12~------12-----------12--17-------------|
G|--14----14-16-17-16-17-------|----------------------------------------14----14-13~-----------------------|
D|-----14----------------------|---------------------------------------------------------------------------|
A|-----------------------------|---------------------------------------------------------------------------|
E|-----------------------------|---------------------------------------------------------------------------|

e|--------------------------------------------------|
B|--17--15~-----13--15~-----12--13~-----15--17~-----|
G|--------------------------------------------------|
D|--------------------------------------------------|
A|--------------------------------------------------|
E|--------------------------------------------------|

Bridge pickup

e|------------------------------------------------|
B|--------------------8-5-------------------------|
G|--5-4---------4-5-5-----7----------4-5-5-7-4~---|
D|------7~----7--------------------7--------------|
A|------------------------------------------------|
E|------------------------------------------------|

e|---------------------------------------------|
B|--------------------8-5------4-5-------------|
G|--5-4---------4-5-5-----7--------4-7-5-------|
D|------7~----7--------------------------7~----|
A|---------------------------------------------|
E|---------------------------------------------|

Neck pickup

e|------------------------------------------12--13--15------------------------|
B|---------12--13--15----12--13--15---------------------12-----13--12---------|
G|---14~-----------------------------12--------------------------------14-----|
D|-------------------------------------------------------------------------14-|
A|----------------------------------------------------------------------------|
E|----------------------------------------------------------------------------|

e|----------------------------------------------------------|
B|----------------------------12--13--12~-------------------|
G|--------------------14--14-----------------14-16-14-13~---|
D|--15~--12--14-15------------------------------------------|
A|----------------------------------------------------------|
E|----------------------------------------------------------|

e|-----------------------------|--15--13------12~-------------------------------|
B|-----------------------15-17-|----------15--------12--15--13~---12------------|
G|--14----14-16-17-16-17-------|--------------------------------------13--14~---|
D|-----14----------------------|------------------------------------------------|
A|-----------------------------|------------------------------------------------|
E|-----------------------------|------------------------------------------------|

e|-----------------------------|--15--13------12~----------------------------------------------------------|
B|-----------------------15-17-|----------15--------12--15--13~---12~------12-----------12~--12~---15------|
G|--14----14-16-17-16-17-------|----------------------------------------14----14-13~-----------------------|
D|-----14----------------------|---------------------------------------------------------------------------|
A|-----------------------------|---------------------------------------------------------------------------|
E|-----------------------------|---------------------------------------------------------------------------|

e|-----------------------------------------13b15r13-13-12---------------------|
B|--17--15--------12-13----12-13-15-----------------------15-----13-12--------|
G|-------------14-------------------12---------------------------------14-----|
D|------------------------------------------------------------------------14--|
A|----------------------------------------------------------------------------|
E|----------------------------------------------------------------------------|

e|----------------------------------------------------------|
B|----------------------------12--13--12~-------------------|
G|--------------------14--14-----------------14-16-14-13~---|
D|--15~--12--14-15------------------------------------------|
A|----------------------------------------------------------|
E|----------------------------------------------------------|

e|-----------------------------|--15--13------12~-------------------------------|
B|-----------------------15-17-|----------15--------12--15--13~---12------------|
G|--14----14-16-17-16-17-------|--------------------------------------13--14~---|
D|-----14----------------------|------------------------------------------------|
A|-----------------------------|------------------------------------------------|
E|-----------------------------|------------------------------------------------|

e|-----------------------------|--15--13------12~------------------------------------------------16--17~~---|
B|-----------------------15-17-|----------15--------12--15--13~---12~------12-----------12~--17-------------|
G|--14----14-16-17-16-17-------|----------------------------------------14----14-13~------------------------|
D|-----14----------------------|----------------------------------------------------------------------------|
A|-----------------------------|----------------------------------------------------------------------------|
E|-----------------------------|----------------------------------------------------------------------------|

e|-----------------------------------------|-----------------------------------------|
B|--17--15~---13--15~---12--13~------------|--17--15~---13--15~---12--13~---15--17~--|
G|--------------------------------14--13~--|-----------------------------------------|
D|-----------------------------------------|-----------------------------------------|
A|-----------------------------------------|-----------------------------------------|
E|-----------------------------------------|-----------------------------------------|

e|----------------------------------------------------17~~---|
B|-----------------13--12--13--15--12---13-12----------------|
G|---------12--14------------------------------14~-----------|
D|-14-15~----------------------------------------------------|
A|-----------------------------------------------------------|
E|-----------------------------------------------------------|