Login or Register to remove this ad. | Advertise Here

Welcome!! (Ys III: Wanderers from Ys) Guitar Tab

Submitted: Jul 21, 2011 by BacardiBreezer (Last updated: Jul 22, 2011)

0
Download | Listen
Game: Ys III: Wanderers from Ys
Composer(s): Mieko Ishikawa
Style: 2 or more instruments, Transcription
Series: Ys

This song is also called Shop

AutoScroll: Slow | Medium | Fast
Welcome!
Ys III: Wanderers From Ys
Composer: Mieko Ishikawa
Tabbed by: Bacardibreezer
7/18/11

Guitar 1, Lead

e|----------6-5------------|-------------------------11-10----------------|
B|----8-7-8-----8-7-8------|----------------13-12-13-------13-12-13-------|
G|--7-----------------7~---|------7-9----10-------------------------12~---|
D|-------------------------|-8-10-----------------------------------------|
A|-------------------------|----------------------------------------------|
E|-------------------------|----------------------------------------------|

e|----------------------------------------------------------|
B|-----10-11~----11h13p11-10~------------8~------10--8--7~--|
G|--12----------------------------10~-----------------------|
D|----------------------------------------------------------|
A|----------------------------------------------------------|
E|----------------------------------------------------------|

e|--------10~------13---11h10h8~--|---------11---13h11h10~--|
B|--11-13-------------------------|--13~--------------------|
G|--------------------------------|-------------------------|
D|--------------------------------|-------------------------|
A|--------------------------------|-------------------------|
E|--------------------------------|-------------------------|

e|--------10~------13---11h10h8~--|--11-----10-----------|
B|--11-13-------------------------|-------------11-------|
G|--------------------------------|-----------------12---|
D|--------------------------------|----------------------|
A|--------------------------------|----------------------|
E|--------------------------------|----------------------|

Guitar 2, Rhythm

e|--------------------------|
B|--------------------------|
G|--------------------------|
D|--------------------------|
A|--------------------------|
E|--2---2---2-------2---2---| x7

e|---------------------------|-----------------------------|
B|---------------------------|-----------------------------|
G|---------------------------|-----------------------------|
D|---------------------------|-----------------------------|
A|-----------------1---------|------------------------1----|
E|--2---2---2-----------2----|---2---2---2-------2---------|

e|---------------------------|------------------------|
B|---------------------------|------------------------|
G|---------------------------|------------------------|
D|---------------------------|------------------------|
A|------------------------1--|---------------------1--|
E|--2---2---2-------2--------|----2---2---2-----------| x4

Guitar 3, rest 3 measures or until :11

e|--------------------------------------------|
B|------1-3-1-----3-3---------------1----1----|
G|----2-------3-2-------3-0-----3-------------|
D|--4-----------------------------------------|
A|--------------------------------------------|
E|--------------------------------------------|

e|-----------------------------|
B|--1-1-----------4----3--3----|
G|--------2--------------------|
D|----------4------------------|
A|-----------------------------|
E|-----------------------------|

e|---------------------------|--------------------------------|
B|--3-3----------------1--1--|---1-1----------4---3-1---------|
G|--------3-0-----3----------|---------2--------------3-2-0---|
D|---------------------------|-----------4--------------------|
A|---------------------------|--------------------------------|
E|---------------------------|--------------------------------|