Login or Register to remove this ad. | Advertise Here

Valestein Castle (Ys III: Wanderers from Ys) Guitar Tab

Submitted: Dec 07, 2010 by BacardiBreezer (Last updated: Oct 23, 2011)

0
Download | Listen
Game: Ys III: Wanderers from Ys
Composer(s): Mieko Ishikawa
Style: Transcription
Series: Ys

AutoScroll: Slow | Medium | Fast
Ballacetine/Valestein Castle
Ys III: Wanderers From YS
Composer: Mieko Ishikawa
Tabbed by: Bacardibreezer
12/7/10 Updated 10/23/11

e|---------------------------|-----------------------------------|
B|---------------------------|-----------------------------------|
G|--11-9-11-------11-9-11----|--------9-----11----9--------------|
D|----------9-------------9--|--11-12------------------12----11--|
A|---------------------------|-----------------------------------|
E|---------------------------|-----------------------------------|

e|-----------------------------------------|-------------------------------------|
B|-----------------------------------------|----------10-------------------------|
G|--------------11----9-11----10-----------|--------9--------11-12-9-11----9-----|
D|--9---9-11-12------------12----11-12-----|-----11---------------------12---11--|
A|-------------------------------------12--|--12---------------------------------|
E|-----------------------------------------|-------------------------------------|

e|-------------------------------------|----------------------------|
B|-------------------------------------|-------------10----10-------|
G|--------------11----9-11----9--------|---9-11-12------12----11~---|
D|--9---9-11-12------------12---11-12--|----------------------------|
A|-------------------------------------|----------------------------|
E|-------------------------------------|----------------------------|

e|-----------------12-14-15-12--|---------18--15--14--18--------|
B|-----10-12-14-----------------|--14--17-----------------15~---|
G|--11--------------------------|-------------------------------|
D|------------------------------|-------------------------------|
A|------------------------------|-------------------------------|
E|------------------------------|-------------------------------|

e|--------------------------------------------------14~---|
B|--14--12~---------12-15~----12-14-15-14~----12-14-------|
G|------------12-14---------------------------------------|
D|--------------------------------------------------------|
A|--------------------------------------------------------|
E|--------------------------------------------------------|

e|--14---12----12-----|--------12--14---12----12-----|--------12--14---12----12-----|--------12----------------|
B|----------15----12--|--14-15-------------15----12--|--14-15-------------15----12--|--14-----------15-14-15~--|
G|--------------------|------------------------------|------------------------------|-----14-------------------|
D|--------------------|------------------------------|------------------------------|--------------------------|
A|--------------------|------------------------------|------------------------------|--------------------------|
E|--------------------|------------------------------|------------------------------|--------------------------|

e|--------12--14---12----12-----|--------12--14---12----12-----|--------12--14---12----12-----|--------------/19~--|
B|--14-15-------------15----12--|--14-15-------------15----12--|--14-15-------------15----12--|--14----12~---------|
G|------------------------------|------------------------------|------------------------------|-----14-------------|
D|------------------------------|------------------------------|------------------------------|--------------------|
A|------------------------------|------------------------------|------------------------------|--------------------|
E|------------------------------|------------------------------|------------------------------|--------------------|

e|-----------14---12-10---------------------------12----------------------------------------12------|  \
B|--12-14-15------------14-12----14----15---12----------15----14----15----14----------14-------14---|   \
G|----------------------------11----11---11----11----11----11----11----11----11-10-11----11---------|    \
D|--------------------------------------------------------------------------------------------------|     \  
A|--------------------------------------------------------------------------------------------------|      \
E|--------------------------------------------------------------------------------------------------|       \
                                                                                                             x2
e|--------------------------------------------------------------10----------12----------------------|       /
B|--12----14----15----12----14----------12----15----14----------------------------------14----------|      /
G|-----11----11----11----11----11-14-11----11----11----11-10-11----11-10-11----11-10-11----11-10-11-|     /
D|--------------------------------------------------------------------------------------------------|    /
A|--------------------------------------------------------------------------------------------------|   /
E|--------------------------------------------------------------------------------------------------|  /

e|-------------12-14~-|-12----------15--14~--|-----12---------------------|-----------------------------|
B|--15---14-15--------|-----15--14-----------|--14----15-14------14-12----|-----------------12--14--15--|
G|--------------------|----------------------|----------------14-------11-|-------------11--------------|
D|--------------------|----------------------|----------------------------|-11-14-12-11-----------------|
A|--------------------|----------------------|----------------------------|-----------------------------|
E|--------------------|----------------------|----------------------------|-----------------------------|

e|-------------12-14~-|--12-----------12-------|
B|--15---14-15--------|------15-14-15------14--|
G|--------------------|------------------------|
D|--------------------|------------------------|
A|--------------------|------------------------|
E|--------------------|------------------------|

e|----------------------------------------------------------------12-12-|
B|--15-15-15-15-15--15-15--15-14-14-----15-15-15-15-15--15-15--15-------|
G|----------------------------------------------------------------------|
D|----------------------------------------------------------------------|
A|----------------------------------------------------------------------|
E|----------------------------------------------------------------------|

e|----------------------------------------------------------------------|
B|--15-15-15-15-15--15-15--15-14-14-----15-15-15-15-15--15-15--14-------|
G|----------------------------------------------------------------------|
D|----------------------------------------------------------------------|
A|----------------------------------------------------------------------|
E|----------------------------------------------------------------------|

2 comments on Valestein Castle

I think it's a little easier

I think it's a little easier playing the fast part like this

e|-----------14---12-10---------------------------12----------------------------------------12------|  \
B|-----14-15------------14-12----14----15---12----------15----14----15----14----------14-------14---|   \
G|--16------------------------11----11---11----11----11----11----11----11----11-10-11----11---------|    \
D|--------------------------------------------------------------------------------------------------|     \  
A|--------------------------------------------------------------------------------------------------|      \
E|--------------------------------------------------------------------------------------------------|       \
                                                                                                             x2
e|--------------------------------------------------------------10----------12----------------------|       /
B|--12----14----15----12----14----------12----15----14----------------------------------14----------|      /
G|-----11----11----11----11----11-14-11----11----11----11-10-11----11-10-11----11-10-11----11-10-11-|     /
D|--------------------------------------------------------------------------------------------------|    /
A|--------------------------------------------------------------------------------------------------|   /
E|--------------------------------------------------------------------------------------------------|  /

So I can keep my index finger on the 11 most of the time, which is a lot easier than playing notes both above and below it. I only shift down for those 11 10 11s.

Yep, I agree! :) good call

Yep, I agree! :) good call