Login or Register to remove this ad. | Advertise Here

Town of Redmont (Ys III: Wanderers from Ys) Guitar Tab

Submitted: Aug 19, 2011 by BacardiBreezer (Last updated: Aug 20, 2011)

5
Average: 5 (1 vote)
Download | Listen
Game: Ys III: Wanderers from Ys
Composer(s): Mieko Ishikawa
Style: Alternate picking, Transcription
Series: Ys

AutoScroll: Slow | Medium | Fast
Town of Redmont
Ys III: Wanderers From Ys
Composer: Mieko Ishikawa
Tabbed by: Bacardibreezer
8/17/11

e|-------------------------------------------------|
B|-------------------------------------------------|
G|--9h10p9----9~-----9--10--12-----9h10p9----9~----|
D|---------12-----------------------------12-------|
A|-------------------------------------------------|
E|-------------------------------------------------|

e|----------------------10~--------------------------|
B|-------------------------------------12----10-10---|
G|---------------9-12-9---------9-12-9---------------|
D|--10---9-10-12-------------------------------------|
A|---------------------------------------------------|
E|---------------------------------------------------|

e|-----------------------------------------------------------12------17~----15~-----19~---------|
B|------------------------10~-------13~------10--12--13~----------15-----------------------20~--|
G|--12~----9--10--12~------------12-------------------------------------------------------------|
D|----------------------------------------------------------------------------------------------|
A|----------------------------------------------------------------------------------------------|
E|----------------------------------------------------------------------------------------------|

x2

e|--------------------------------------------------------------------|
B|------------------------------8-------------------------------------|
G|---------9----7------------7-------9-10-9-8-9---7---------------9---|
D|--7-9-10--------10-7-9--10--------------------9---10-7~----9-10-----|
A|--------------------------------------------------------------------|
E|--------------------------------------------------------------------|

e|--------------------------------7-----------------------------------------|
B|------------------10-8-------8-----10~----8-------------------------------|
G|------9-7-9----10---------7------------------9~-------7-------------------|
D|----7-------------------9---------------------------9---10-9----9-7-------|
A|--8----------------------------------------------------------10-----7~----|
E|--------------------------------------------------------------------------|

e|-----------------------------------7-------7------7---8---7-----------|
B|------------------------------8-10-----------10-9-------------10------|
G|----------9-----7------7-9-10--------9-8-9------------------------9---|
D|--------7---------9-10------------------------------------------------|
A|--8-7-8---------------------------------------------------------------|
E|----------------------------------------------------------------------|

e|-----------------------------10-12-13----------------10------------------------|
B|--------10-12-13----10-12-13----------10----12-13-12----13---12---10-----------|
G|--10-12----------------------------------------------------------------9---13--|
D|-------------------------------------------------------------------------------|
A|-------------------------------------------------------------------------------|
E|-------------------------------------------------------------------------------|