Login or Register to remove this ad. | Advertise Here

Town of Redmont (Ys III: Wanderers from Ys) Bass Tab

Submitted: Nov 11, 2010 by auriplane

0
Download | Listen
Game: Ys III: Wanderers from Ys
Composer(s): Mieko Ishikawa
Style: Arrangement, Transcription
Series: Ys

AutoScroll: Slow | Medium | Fast
               Ys III (SNES) - Town of Redmont BASS TAB
                       Composed by Mieko Ishikawa

                Tabbed by auriplane (crystal@panix.com)



Okay, first, here's a literal transcription.  There's a lot of sixteenth
notes in it, which are cool, but it sounds fine without them and some of
them are a little tricky, so I decided to make a simplified version too.
I don't know if this bassline is different in other versions, 'cause I've
only played the SNES one.

Scroll down for the simplified version.




                         LITERAL TRANSCRIPTION

        Part A  (play twice)

G |----------------|----------------|----------------|----------------|
D |----------------|----------------|----------------|----------------|
A |3-3-3-3-3-3-3-3-|3-3-3-3-333-333-|----------------|----------------|
E |----------------|----------------|1-1-1-1-1-1-1-1-|1-1-1-1-111-1111|


G |----------------|----------------|----------------|----------------|
D |----------------|----------------|----------------|----------------|
A |----------------|----------------|----------------|----------------|
E |0-0-0-0-0-0-0-0-|0-0-0-0-0-000000|5-5-5-5-5-5-5-5-|5-5-4-4-3-3-2-1-|

   
G |----------------|----------------|----------------|----------------|
D |----------------|----------------|----------------|----------------|
A |----------------|----------------|----------------|--------------3-|
E |--1-1-1-1-1-1-1-|1-1-1-1-1-1-1-3-|--3-3-3-3-3-3-3-|3-3-3-3-3-3-3---|

                                                      First ending
G |----------------|----------------|----------------|----------------|
D |----------------|----------------|----------------|----------------|
A |--3-3-3-3-3-3-3-|3-3-3-3-3-3-3-3-|3-3-3-3-3-3-3-3-|3-3-3-3-33333\--|
E |----------------|----------------|----------------|----------------|

                                                      Second ending
                                                      ----------------|
                                                      ----------------|
                                                      3-3-3-3-3---4---|
                                                      ----------------|

        Part B

G |----------------|---------4-4----|----------------|-----4-4-5-5----|
D |----------------|--55--7-------5-|----------------|--7-----------77|
A |5-5-5-5-5-5-5---|--------2-------|----------------|----2---3-3-----|
E |--------------3-|----5-------3---|0-0-0-0-0-0-0-5-|------------5---|


G |----------------|---------4-4----|----------------|--5-------------|
D |----------------|--55--7-------5-|----------------|----------------|
A |----------------|--------2-------|3-3-3-3-3-3-3-3-|----3-3-44444\--|
E |1-1-1-1-1-1-2-3-|----5-------3---|----------------|----------------|


G |----------------|----------44----|----------------|------44--5-----|
D |----------------|--55--7-------5-|----------------|--77----------77|
A |5-5-5-5-5-5-5---|--------22------|----------------|----2---3-------|
E |--------------3-|----5-------3---|0-0-0-0-0-0-0-5-|------------5---|


G |----------------|---------444----|----------------|----------------|
D |----------------|--55--7-------5-|----------------|----------------|
A |----------------|--------2-------|3-3-3-3-3-3-3-3-|--3-33-3-33-3333|
E |1-1-1-1-1-1-2-3-|----5-------3---|----------------|----------------|






                          SIMPLIFIED VERSION

        Part A  (play twice)

G |----------------|----------------|----------------|----------------|
D |----------------|----------------|----------------|----------------|
A |3-3-3-3-3-3-3-3-|3-3-3-3-3-3-3-3-|----------------|----------------|
E |----------------|----------------|1-1-1-1-1-1-1-1-|1-1-1-1-1-1-1-1-|


G |----------------|----------------|----------------|----------------|
D |----------------|----------------|----------------|----------------|
A |----------------|----------------|----------------|----------------|
E |0-0-0-0-0-0-0-0-|0-0-0-0-0-0-0-0-|5-5-5-5-5-5-5-5-|--5-4-4-3-3-2-1-|

   
G |----------------|----------------|----------------|----------------|
D |----------------|----------------|----------------|----------------|
A |----------------|----------------|----------------|--------------3-|
E |--1-1-1-1-1-1-1-|1-1-1-1-1-1-1-3-|--3-3-3-3-3-3-3-|3-3-3-3-3-3-3---|

                                                      First ending
G |----------------|----------------|----------------|----------------|
D |----------------|----------------|----------------|----------------|
A |--3-3-3-3-3-3-3-|3-3-3-3-3-3-3-3-|3-3-3-3-3-3-3-3-|3-3-3-3-3-3-3---|
E |----------------|----------------|----------------|----------------|

                                                      Second ending
                                                      ----------------|
                                                      ----------------|
                                                      3-3-3-3-3---4---|
                                                      ----------------|

        Part B

G |----------------|----------4-----|----------------|------4---5-----|
D |----------------|--5---7-------5-|----------------|--7-----------7-|
A |5-5-5-5-5-5-5---|--------2-------|----------------|----2---3-------|
E |--------------3-|----5-------3---|0-0-0-0-0-0-0-5-|------------5---|


G |----------------|----------4-----|----------------|--5-------------|
D |----------------|--5---7-------5-|----------------|----------------|
A |----------------|--------2-------|3-3-3-3-3-3-3-3-|----3-3-4-4-4---|
E |1-1-1-1-1-1-2-3-|----5-------3---|----------------|----------------|


G |----------------|----------4-----|----------------|------4---5-----|
D |----------------|--5---7-------5-|----------------|--7-----------7-|
A |5-5-5-5-5-5-5---|--------2-------|----------------|----2---3-------|
E |--------------3-|----5-------3---|0-0-0-0-0-0-0-5-|------------5---|


G |----------------|----------4-----|----------------|----------------|
D |----------------|--5---7-------5-|----------------|----------------|
A |----------------|--------2-------|3-3-3-3-3-3-3-3-|--3-3-3-3-3-3-3-|
E |1-1-1-1-1-1-2-3-|----5-------3---|----------------|----------------|