Login or Register to remove this ad. | Advertise Here

The Strongest Foe (Ys III: Wanderers from Ys) Guitar Tab

Submitted: Nov 30, 2010 by BacardiBreezer (Last updated: May 01, 2011)

0
Download | Listen
Game: Ys III: Wanderers from Ys
Composer(s): Mieko Ishikawa
Style: Alternate picking, Transcription
Series: Ys

This song is also called The Final Fight

AutoScroll: Slow | Medium | Fast
"The Strongest Foe"
Ys III: Wanderers From Ys
Composer: Mieko Ishikawa
Tabbed by: Bacardibreezer
11/30/10

e---------------|---------------|---------------|-------------------|
B---------------|---------------|---------------|-5---3h5p3---------|
G--2-4-5--2-4-5-|--2-4-5--2-4-5-|--2-4-5--2-4-5-|-----------5-4-----|
D---------------|---------------|---------------|---------------6~--|
A---------------|---------------|---------------|-------------------|
E---------------|---------------|---------------|-------------------| x2

e---------------|---------------|---------------|-3---2h3p2---------|
B----3-5----3-5-|----3-5----3-5-|----3-5----3-5-|-----------5-3-5~--|
G--5------5-----|--5------5-----|--5------5-----|-------------------|
D---------------|---------------|---------------|-------------------|
A---------------|---------------|---------------|-------------------|
E---------------|---------------|---------------|-------------------|

e---------------|---------------|---------------|-3---2h3p2--------------------------------------|
B----3-5----3-5-|----3-5----3-5-|----3-5----3-5-|-----------5-3-5-3~---5-3------3--5~----7-5-4~--|
G--5------5-----|--5------5-----|--5------5-----|--------------------------5~--------------------|
D---------------|---------------|---------------|------------------------------------------------|
A---------------|---------------|---------------|------------------------------------------------|
E---------------|---------------|---------------|------------------------------------------------|

e------7-6-----------------|-------7-6-----------------------|
B----8-----7--------7------|-----8-----7---------------------|
G--9---------9----7--------|---9---------9-----7-6-7-6--9~---|
D---------------------9~---|---------------------------------|
A--------------------------|---------------------------------|
E--------------------------|---------------------------------|

e------7-6-----------------|------7-6-----------------------------|
B----8-----7--------7------|----8-----7-10------------------8-----|
G--9---------9----7--------|--9----------------6--------7-9---9~--|
D---------------------9~---|---------------------8-9-10-----------|
A--------------------------|--------------------------------------|
E--------------------------|--------------------------------------|

e--17-17--17--17-17--17---16-16--16--16-16--16---15-15--15--15-15--15---14-14--14-14s1-|
B--------------------------------------------------------------------------------------|
G--------------------------------------------------------------------------------------|
D--------------------------------------------------------------------------------------|
A--------------------------------------------------------------------------------------|
E--------------------------------------------------------------------------------------|

e---------------------|-------------------|------------------------| \
B---------------------|-------------------|------------------------|  \
G-----9-12-11---------|-----9-12-14-11~---|-----9-12-11------------|   \
D--10---------12------|--10---------------|--10---------12----10~--|    \
A------------------12-|-------------------|----------------12------|     \
E---------------------|-------------------|------------------------|      \

e---------------------|-------------------|------------------------|       /    x2
B---------------------|-------------------|------------------------|      /
G-----9-12-11---------|-----9-12-14-11~---|-----9-12-11-12-14------|     / 
D--10---------12------|--10---------------|--10---------------14~--|	/    
A------------------12-|-------------------|------------------------|   /	
E---------------------|-------------------|------------------------|  /