Login or Register to remove this ad. | Advertise Here

Steeling the Will to Fight (Ys III: Wanderers from Ys) Bass Tab

Submitted: Aug 05, 2011 by auriplane (Last updated: Aug 11, 2011)

5
Average: 5 (1 vote)
Download | Listen
Game: Ys III: Wanderers from Ys
Composer(s): Mieko Ishikawa
Style: Transcription
Series: Ys

This song is also called Eldam Mountains

AutoScroll: Slow | Medium | Fast
             Ys III (SNES) - Steeling the Will to Fight BASS TAB
                         Composed by Mieko Ishikawa
                  
                  Tabbed by auriplane (crystal@panix.com)

                                                                G ----|
                                                                D ----|
This song is also called "Eldam Mountains".                     A ----|
Five-string bass, standard tuning.                              E ----|
                                                                B 5-55|
        Part A

G |----------------|----------------|----------------|----------------|
D |----------------|----------------|----------------|----------------|
A |----------------|----------------|----------------|----------------|
E |5-------------3-|----------------|----------------|----------------|
B |----------------|--------------6-|--------------5-|------------5-55|


G |----------------|----------------|----------------|----------------|
D |----------------|----------------|----------------|--------2-------|
A |----------------|----------------|----------------|----------5-3-2-|
E |5-------------3-|----------------|----------------|----------------|
B |----------------|--------------6-|--------------5-|----------------|

        Part B

G |----------------|----------------|----------------|----------------|
D |----------------|--------------2-|----------------|2---2---2---2---|
A |--------------2-|3---3---3---3---|5---5---5---5---|----------------|
E |5---5---5---5---|----------------|----------------|----------------|
B |----------------|----------------|--------------4-|----------------|


G |----------------|----------------|----------------|----------------|
D |----------------|----------------|--------2---2---|--------------2-|
A |--------------2-|3---3---3---3-4-|5---5-----------|----------2-3---|
E |5---5---5---5---|----------------|----------------|5---5---5-------|
B |----------------|----------------|----------------|----------------|

        Part C

G |----------------|----------------|----------------|----------------|
D |3---3---3---3-2-|----------------|----------------|----------------|
A |------3----3----|--------2---2--5|3---3---2---2---|--------------2-|
E |----------------|3---5------3----|------3-------4-|5---5---3---3---|
B |----------------|----------------|----------------|---5--5----3----|


G |----------------|----------------|--------------2-|----------------|
D |3---3---3---3-2-|--------1---1-1-|2---2---2-------|2---------------|
A |------3----3----|5---5-----------|-----------25---|----5---3---2---|
E |----------------|-----------4----|----------------|----------------|
B |----------------|----------------|----------------|----------------|

        Part D

G |----------------|----------------|----------------|----------------|
D |----------------|----------------|----------------|----------------|
A |----------------|----------------|----------------|----------------|
E |5---------------|5---------------|5---------------|--------5-------|
B |----------------|----------------|----------------|5---------------|


G |----------------|----------------|----------------|
D |----------------|----------------|----------------|
A |----------------|----------------|----------------|
E |5---------------|5---------------|5---------------|
B |----------------|----------------|----------------|


G |----------------|----------------|----------------|
D |----------------|----------------|----------------|
A |----------------|----------------|----------------|
E |----------------|----------------|----------------|
B |5---------------|5---------------|5-----------5-55|

        Repeat back to Part A.