Login or Register to remove this ad. | Advertise Here

Steeling the Will to Fight (Ys III: Wanderers from Ys) Guitar Tab

Submitted: Aug 11, 2011 by BacardiBreezer

5
Average: 5 (2 votes)
Download | Listen
Game: Ys III: Wanderers from Ys
Composer(s): Mieko Ishikawa
Style: Alternate picking, Transcription
Series: Ys

This song is also called Eldam Mountains

AutoScroll: Slow | Medium | Fast
Steeling the Will to Fight
Ys III: Wanderers From Ys
Composer: Mieko Ishikawa
Tabbed by: Bacardibreezer
8/5/11


e|--12--10~----8--10~----7--8~-------------|--12--10~----8--10~----7--8~----10--12~--|
B|---------------------------------10--9~--|-----------------------------------------|
G|-----------------------------------------|-----------------------------------------|
D|-----------------------------------------|-----------------------------------------|
A|-----------------------------------------|-----------------------------------------|
E|-----------------------------------------|-----------------------------------------|

e|------------------------------15--12--13~------------------10---------|
B|--13-12-10~-------12--13--13-------------------12--13--13-------12~---|
G|--------------14---------------------------14-------------------------|
D|----------------------------------------------------------------------|
A|----------------------------------------------------------------------|
E|----------------------------------------------------------------------|

e|------------------------------15--12--10~----11-12----10----------|
B|--13-12-10~-------12--13--13-----------------------12----13-10~---|
G|--------------14--------------------------------------------------|
D|------------------------------------------------------------------|
A|------------------------------------------------------------------|
E|------------------------------------------------------------------|

e|-----------------------------------------12--13--15-----------------------|
B|-----------------13--15----------15------------------12--13---------------|
G|-----14~-----16----------16--17------16----------------------16--14-------|
D|--14-----------------------------------------------------------------14---|
A|--------------------------------------------------------------------------|
E|--------------------------------------------------------------------------|

e|----------------------------------------------------------------|
B|----------------------------------13~--------------13--15-------|
G|----------------------14--14--16------16~--14--16----------16---|
D|--15~-----12--14--15--------------------------------------------|
A|----------------------------------------------------------------|
E|----------------------------------------------------------------|

e|---------------------------------------------------------------------------------|
B|---------------------------------8---6-------5~----------------------------------|
G|------------------------9~---------------7-----------4---7---5~-----4------------|
D|-----------9-10-9-10-12-------------------------------------------------6---7~---|
A|--12----12-----------------------------------------------------------------------|
E|-----12--------------------------------------------------------------------------|

e|---------------------------------------------------------------------------------|
B|--------------------------------8---6-------5~-----------------------------------|
G|------------------------9~--------------7-----------4---7---5-----4~--------4----|
D|-----------9-10-9-10-12---------------------------------------------------7---7--|
A|--12----12-----------------------------------------------------------------------|
E|-----12--------------------------------------------------------------------------|

e|--------------------------------------------13-12----16----13-12-----------------------------------|
B|--------------------------------------15-12-------------15-------12-15----12-----------------------|
G|--------------------------13----16-13----------------------------------13-------13-----------------|
D|--------------12----15-14----12----------------------------------------------15----12-14----12-14--|
A|--11----14-11----14----------------------------------------------------------------------14--------|
E|-----12--------------------------------------------------------------------------------------------|