Login or Register to remove this ad. | Advertise Here

Shock of the Death God (Ys III: Wanderers from Ys) Guitar Tab

Submitted: Jan 12, 2011 by BacardiBreezer (Last updated: Apr 27, 2011)

0
Download | Listen
Game: Ys III: Wanderers from Ys
Composer(s): Mieko Ishikawa
Style: Transcription
Series: Ys

Click here for a video example.

AutoScroll: Slow | Medium | Fast
Shock of the Death God
Ys III: Wanderers From Ys
Composer: Mieko Ishikawa
Tabbed by: Bacardibreezer
1/11/11

e|----------------------------------------------------------------------|
B|--12-12-12-12-12-12-12-12-12-12---10--12--13---15---13-12-13----------|
G|----------------------------------------------------------------------|
D|----------------------------------------------------------------------|
A|----------------------------------------------------------------------|
E|----------------------------------------------------------------------| 

e|----------------------------------------------------------------------|
B|--12-12-12-12-12-12-12-12-12-12---10--12--13---15---13-12-10----------|
G|----------------------------------------------------------------------|
D|----------------------------------------------------------------------|
A|----------------------------------------------------------------------|
E|----------------------------------------------------------------------|

e|-----------------------------------------------------|
B|-----------------------------------------------------|
G|--9--------------------------9-----------------------|
D|-----7-------7-9-10-------------7--------7-9-10-7----|
A|----------10--------7-----------------11-------------|
E|-----------------------------------------------------|