Login or Register to remove this ad. | Advertise Here

A Searing Struggle (Ys III: Wanderers from Ys) Guitar Tab

Submitted: Dec 12, 2010 by BacardiBreezer

0
Download | Listen
Game: Ys III: Wanderers from Ys
Composer(s): Mieko Ishikawa
Style: Transcription
Series: Ys

AutoScroll: Slow | Medium | Fast
"A Searing Struggle"
Ys III: Wanderers From Ys
Composer: Mieko Ishikawa
Tabbed by: Bacardibreezer
12/7/10

There are two melodies going on in this song, I've separated them as guitar 1 and guitar 2. They do switch a few times
so I hope this makes sense. Switch as in, which one you can hear the best.

If you just want to do the "main melody" you can figure it out and combine them, like what they did in the arrange for
The Oath in Felghana...

Guitar 1

e|--20-19-18--17-15-13--12-13-15-13-12-13-12-10-12-10----10---12-10-----13---12--13--15--|
B|----------------------------------------------------13------------10-------------------|
G|---------------------------------------------------------------------------------------|
D|---------------------------------------------------------------------------------------|
A|---------------------------------------------------------------------------------------|
E|---------------------------------------------------------------------------------------|

e|---------------------------------------------------------------------------|
B|----------------------------------6--5-------10---6--8--10--8-----5--------|
G|--14--------12--14--12------9--8-------------------------------7--------7--|
D|-------15---------------12-------------------------------------------7-----|
A|---------------------------------------------------------------------------|
E|---------------------------------------------------------------------------|

e|--10----------12--13------10-8--------------------------------------13-----|
B|------11--11-----------13-------10-----------------11--13--13--10----------|
G|-------------------------------------10----12--10--------------------------|
D|---------------------------------------------------------------------------|
A|---------------------------------------------------------------------------|
E|---------------------------------------------------------------------------|

e|-----------15-------|	 |--12----12-15-12----|	 |-----------17-------|   |--------------------|
B|--15----15----15----|	 |-----13----------13-|  |--17----17----17----|   |--18-------------18-|
G|-----15----------15-|	 |--------------------|  |-----18----------18-|   |-----19-------19----|
D|--------------------|	 |--------------------|  |--------------------|   |--------19----------|
A|--------------------|	 |--------------------|  |--------------------|   |-----------20-------|
E|--------------------|x2|--------------------|x2|--------------------|x2 |--------------------|

e|--17-------------17-|  |-----------18-------|  |--12----12-15-12----|
B|-----18-------18----|  |--15----15----15----|  |-----13----------13-|
G|--------19-19-------|  |-----15----------15-|  |--------------------|
D|--------------------|  |--------------------|  |--------------------|
A|--------------------|  |--------------------|  |--------------------|
E|--------------------|  |--------------------|x2|--------------------|x2

(Becomes high melody again - at :40)

e|-----------------15-------------------------------|---------------------------15---17----|
B|--15----------------17-18-----17----15--------12--|------------13---17---18--------------|
G|-----14-12-14--------------------17------12-------|--14---15-----------------------------|
D|--------------------------------------------------|--------------------------------------|
A|--------------------------------------------------|--------------------------------------|
E|--------------------------------------------------|--------------------------------------|

e|----------------------------------------------------------------------------12-15-------|
B|--15-17-18-17-15------13-15--------13-15----13-15--------13-15--------13-15-------15----|
G|-------------------15-------15-----------15-----------15--------15----------------------|
D|----------------------------------------------------------------------------------------|
A|----------------------------------------------------------------------------------------|
E|----------------------------------------------------------------------------------------|

e|--12-13-12-15-12------------------------------------------------------------------|
B|--------------------17-18-17-15-17-15-----13-15-13----13--------------------------|
G|---------------------------------------------------15----15-----14-15-14-12-------|
D|----------------------------------------------------------------------------15-14-|
A|----------------------------------------------------------------------------------|
E|----------------------------------------------------------------------------------|

e|--------------------------------------------------|    |--------------------------|
B|--------------------------------------------------|    |--------------------------|
G|--14--10-12-14------------------------------------|    |------------12------------|
D|---------------15--------14--15-14-15--14-15------|    |------14-15----14-15------|
A|------------------17-------------------------17---|    |---17----------------17---|
E|--------------------------------------------------| x2 |--------------------------| x2

e|------------------------------------------|
B|---------------------------14-------------|
G|------------14-------12-14----14--14------|
D|--14--------------14----------------------|
A|-----17-16--------------------------------|
E|------------------------------------------|

Guitar 2 (opening sounds the same)

e|--20-19-18--17-15-13--12-13-15-13-12-13-12-10-12-10----10---12-10-----13---12--13--15--|
B|----------------------------------------------------13------------10-------------------|
G|---------------------------------------------------------------------------------------|
D|---------------------------------------------------------------------------------------|
A|---------------------------------------------------------------------------------------|
E|---------------------------------------------------------------------------------------|

e|---------------------------------------------------------------------------------13-13-13-13--12-12-12-12--|
B|--10-10-10-10--10-10-10-10-----------------------------13-13-13-13--13-13-13-13----------------------------|
G|----------------------------12-12-12-12---12-12-12-12------------------------------------------------------|
D|-----------------------------------------------------------------------------------------------------------|
A|-----------------------------------------------------------------------------------------------------------|
E|-----------------------------------------------------------------------------------------------------------|

e|-----------------------------------------------------------------------------------------------------------|
B|--10-10-10-10--10-10-10-10--11-11-11-11---11-11-11-11--13-13-13-13--10-10-10-10--10-10-10-10--10-10-10-----|
G|-----------------------------------------------------------------------------------------------------------|
D|-----------------------------------------------------------------------------------------------------------|
A|-----------------------------------------------------------------------------------------------------------|
E|-----------------------------------------------------------------------------------------------------------|

(Becomes the high melody now - :18 seconds in)

e|-----------------12--13--15--12----8---10--12--10-----------8--10----12--13--15---18--17--13--15--17-----------8--6--10--12--15--17--12--13-|
B|-10-11-13--15---------------------------------------10--11---------------------------------------------10--11-------------------------------|
G|--------------------------------------------------------------------------------------------------------------------------------------------|
D|--------------------------------------------------------------------------------------------------------------------------------------------|
A|--------------------------------------------------------------------------------------------------------------------------------------------|
E|--------------------------------------------------------------------------------------------------------------------------------------------|

e|--15-17-13---15-17-12---8---|
B|----------------------------|
G|----------------------------|
D|----------------------------|
A|----------------------------|
E|----------------------------|

(You're at the 6th measure with guitar 1 at this point)

e|--10---------------------------------------------------|
B|-----10-8-10---8---------------------------------8-----|
G|-----------------9-10---9------7------------9----------|
D|---------------------------10---------10---------------|
A|-------------------------------------------------------|
E|-------------------------------------------------------|     

e|--13--15--12--13---|
B|-------------------|
G|-------------------|
D|-------------------|
A|-------------------|
E|-------------------| x12

e|---------12-----15----18------------15-----------12----|
B|--13-------------------------17-----------14-----------|
G|-------------------------------------------------------|
D|-------------------------------------------------------|
A|-------------------------------------------------------|
E|-------------------------------------------------------|

e|----------------------------------------|
B|--15------------------------------------|
G|------14----------------12---14---15----|
D|----------------------------------------|
A|-----------12-10-12-12------------------|
E|----------------------------------------| x3

e|--12-9----12-----------------------------------------|
B|-------10------10---------------------------------8--|
G|-------------------14-12-14-14--12---------9-9-10----|
D|----------------------------------------11-----------|
A|-------------------------------------12--------------|
E|-----------------------------------------------------|