Login or Register to remove this ad. | Advertise Here

Sealed Time (Ys III: Wanderers from Ys) Guitar Tab

Submitted: Apr 26, 2011 by BacardiBreezer

0
Download | Listen
Game: Ys III: Wanderers from Ys
Composer(s): Mieko Ishikawa
Style: Transcription
Series: Ys

This song is also called Clock Tower

AutoScroll: Slow | Medium | Fast
Sealed Time
Ys III: Wanderers From Ys
Composer: Mieko Ishikawa
Tabbed by: Bacardibreezer
4/24/11

e|-----------8-6~----------------------13-12~----|
B|--------6--------------10~--------13-----------|
G|--7--9--------------12-------------------------|
D|-----------------------------------------------|
A|-----------------------------------------------|
E|-----------------------------------------------|

e|--10~-------------------------------------------------10---|
B|-------13-------11~--------10---8--------------------------|
G|------------12--------------------10---9-10---------7------|
D|---------------------------------------------10~-----------|
A|-----------------------------------------------------------|
E|-----------------------------------------------------------|

e|--12-13-15----13-12------------13----12-13-15----13-15-17~-|
B|--------------------15~------------------------------------|
G|-----------------------------------------------------------|
D|-----------------------------------------------------------|
A|-----------------------------------------------------------|
E|-----------------------------------------------------------|

e|--------------------------------------------------|
B|--------------------------------------------------|
G|--14----------15-14-12----12----------------------|
D|-----12~---------------15----15-14-11------12~----|
A|---------------------------------------12---------|
E|--------------------------------------------------|

e|-------------------------------------------------------------|
B|-------------------------------------------------------------|
G|-------------------------------------------------------------|
D|----------------------7~-------------------------------------|
A|--8--7------10--8--10------------8--7------10--8--10--8-7----|
E|--------10-----------------------------10-----------------10-|

e|----------------------------------------------------------------------|
B|----------------------------------------------------------------------|
G|----------------------------------------------------------------------|
D|----------------------7~----------------------------------------10/12-|
A|--8--7------10--8--10------------8--7------10--8--10--8-7-------------|
E|--------10-----------------------------10-----------------10----------|