Login or Register to remove this ad. | Advertise Here

Quickening Dream (Ys III: Wanderers from Ys) Guitar Tab

Submitted: Oct 28, 2011 by BacardiBreezer

0
Download | Listen
Game: Ys III: Wanderers from Ys
Composer(s): Mieko Ishikawa
Style: Transcription
Series: Ys

AutoScroll: Slow | Medium | Fast
Quickening Dream
Ys III: Wanderers From YS
Composer: Mieko Ishikawa
Tabbed by: Bacardibreezer
10/27/11

e|---15--15----19----17--15-------|-------------------------15~---|
B|---------------------------18~--|---17--15-----17~----18--------|
G|--------------------------------|-------------------------------|
D|--------------------------------|-------------------------------|
A|--------------------------------|-------------------------------|
E|--------------------------------|-------------------------------|

e|--------------------------|-------------------------|
B|--17---------15--14-------|-----------15--18--17~---|
G|------16-------------14~--|-------15----------------|
D|--------------------------|--14---------------------|
A|--------------------------|-------------------------|
E|--------------------------|-------------------------|

Repeat FOREVER!!