Login or Register to remove this ad. | Advertise Here

A Premonition = Styx = (Ys III: Wanderers from Ys) Guitar Tab

Submitted: Apr 25, 2011 by BacardiBreezer (Last updated: Apr 26, 2011)

0
Download | Listen
Game: Ys III: Wanderers from Ys
Composer(s): Mieko Ishikawa
Style: Transcription
Series: Ys

AutoScroll: Slow | Medium | Fast
A Premonition =Styx=
Ys III: Wanderers From Ys
Composer: Mieko Ishikawa
Tabbed by: Bacardibreezer
4/24/11


e|--------------------17-14------12~-------------------------17-14-------17-19~---|
B|-----------------15--------15--------------------------15--------15-17----------|
G|--16----------16-----------------------16----------16---------------------------|
D|--------14-16--------------------------------14-16------------------------------|
A|--------------------------------------------------------------------------------|
E|--------------------------------------------------------------------------------| x2

e|--19----17----------------------------------------------------------------|
B|-----20----19-20----19----17----------------------------------------------|
G|-----------------21----19----18-19-16-18----16----------------------------|
D|-----------------------------------------19----17-------------------------|
A|------------------------------------------------------------15--14--------|
E|--------------------------------------------------------------------15-10-|

e|-------------------------------------------------------------------------|
B|-------------------------------------------------------------------------|
G|--16~----14--16-16--14-14~-----16~--14-14---12-14-16~-----------11-12-14-|
D|-------------------------------------------------------------14----------|
A|-------------------------------------------------------------------------|
E|-------------------------------------------------------------------------|

e|-------------------------------------------------------|
B|-------------------------------------------------------|
G|--16~----14--16-16--14-14~-----16~--14-14---12-14------|
D|--------------------------------------------------14~--|
A|-------------------------------------------------------|
E|-------------------------------------------------------|