Login or Register to remove this ad. | Advertise Here

Morning Departure (Ys III: Wanderers from Ys) Guitar Tab

Submitted: May 02, 2011 by BacardiBreezer

5
Average: 5 (1 vote)
Download | Listen
Game: Ys III: Wanderers from Ys
Composer(s): Mieko Ishikawa
Style: 2 or more instruments, Transcription
Series: Ys

AutoScroll: Slow | Medium | Fast
Morning of Departure
Ys III: Wanderers From Ys
Composer: Mieko Ishikawa
Tabbed by: Bacardibreezer
5/1/11

Melody:

e|--------------------------------------------------------------------------|
B|--------------------------------------------------------------------------|
G|----------------------------------------------10~-----12-14------12-14----|
D|--------------------5--7~--------8--7--8--10----------------15---------15-|
A|-----------------8------------8-------------------------------------------|
E|--5----6----8-------------------------------------------------------------|

e|------------------13--15-17~------15--18--17--18--20--25~---|
B|--------------13--------------------------------------------|
G|--12--14--15------------------------------------------------|
D|------------------------------------------------------------|
A|------------------------------------------------------------|
E|------------------------------------------------------------|

e|--17-----------------------|-------------------------------13-|
B|-----18-17------------13~--|---------15---15------------------|
G|-----------17-14---15------|--15-17-----------17-15-17~-------|
D|---------------------------|----------------------------------|
A|---------------------------|----------------------------------|
E|---------------------------|----------------------------------|

e|-------------------------------------------|
B|---------------------------15--15----------|
G|------10-------------15-17-----------17-15-|
D|--10---------------------------------------|
A|----------------8--------------------------|
E|-----------8-8-----------------------------|

e|---------------------------------------------------------------------------------------|
B|-----------------------8---------------------------------------------------------------|
G|-------------9--7-10-------9---7-----10-9----7-----10---9---10--9----7---9---7---------|
D|--10--7~-------------------------------------------------------------------------10~---|
A|---------------------------------------------------------------------------------------|
E|---------------------------------------------------------------------------------------|

e|------13--15-------13--15-----13-------|-----------------------------------|
B|--16----------16-----------------16~---|------------8---------8------------|
G|---------------------------------------|-----8--10-----8---10-------10--8~-|
D|---------------------------------------|-----------------------------------|
A|---------------------------------------|-----------------------------------|
E|---------------------------------------|-----------------------------------|

e|------13--15------13--15~---|------------------------------------------------8~----------|
B|--16----------16------------|--------8---------8--------8~-----------9-8~----------------|
G|----------------------------|-8--10-----8--10-----8-10--------10~------------------------|
D|----------------------------|------------------------------------------------------10~---|
A|----------------------------|------------------------------------------------------------|
E|----------------------------|------------------------------------------------------------|

e|---------------------------------------11-|
B|-------11-9~-------9-8-6~-----------------|
G|-----8-----------8---------8~-------------|
D|--10----------10--------------------------|
A|------------------------------------------|
E|------------------------------------------|


Rhythm:

e|--18-17----------18-17----------18-17----------18-17--------|
B|--------18-------------18-------------18-------------18-----|
G|-----------17-------------17-------------17-------------17--|
D|------------------------------------------------------------|
A|------------------------------------------------------------|
E|------------------------------------------------------------|

e|--18-17----------18-17----------18-17----------18-17--------|
B|--------18-------------18-------------18-------------18-----|
G|-----------17-------------17-------------17-------------17--|
D|------------------------------------------------------------|
A|------------------------------------------------------------|
E|------------------------------------------------------------|

e|--18-17----------18-17----------18-17----------18-17--------|
B|--------18-------------18-------------18-------------18-----|
G|-----------19-------------19-------------19-------------19--|
D|------------------------------------------------------------|
A|------------------------------------------------------------|
E|------------------------------------------------------------|

e|--18-17----------18-17----------18-17----------18-17-18-20--|
B|--------20-18----------20-18----------20-18-----------------|
G|------------------------------------------------------------|
D|------------------------------------------------------------|
A|------------------------------------------------------------|
E|------------------------------------------------------------|

e|--18-17----------18-17----------18-17----------18-17--------|
B|--------18-------------18-------------18-------------18-----|
G|-----------17-------------17-------------17-------------17--|
D|------------------------------------------------------------|
A|------------------------------------------------------------|
E|------------------------------------------------------------|

e|--18-17----------18-17----------18-17----------18-17--------|
B|--------18-------------18-------------18-------------18-----|
G|-----------17-------------17-------------17-------------17--|
D|------------------------------------------------------------|
A|------------------------------------------------------------|
E|------------------------------------------------------------|

e|--18-17----------18-17----------18-17----------18-17--------|
B|--------18-------------18-------------18-------------18-----|
G|-----------19-------------19-------------19-------------19--|
D|------------------------------------------------------------|
A|------------------------------------------------------------|
E|------------------------------------------------------------|

e|--18-17----------18-17----------18-17----------18-17--------|
B|--------18-------------18-------------18-------------18-----|
G|-----------17-------------17-------------17-------------17--|
D|------------------------------------------------------------|
A|------------------------------------------------------------|
E|------------------------------------------------------------|

e|--18-17----------18-17----------18-17----------18-17--------|
B|--------18-------------18-------------18-------------18-----|
G|-----------17-------------17-------------17-------------17--|
D|------------------------------------------------------------|
A|------------------------------------------------------------|
E|------------------------------------------------------------| x8