Login or Register to remove this ad. | Advertise Here

Inside a House (Ys III: Wanderers from Ys) Guitar Tab

Submitted: Aug 18, 2011 by BacardiBreezer

5
Average: 5 (1 vote)
Download | Listen
Game: Ys III: Wanderers from Ys
Composer(s): Mieko Ishikawa
Style: Transcription
Series: Ys

AutoScroll: Slow | Medium | Fast
Inside a House
Ys III: Wanderers From Ys
Composer: Mieko Ishikawa
Tabbed by: Bacardibreezer
8/17/11

e|------------------------------------|
B|-----5----5-------------------------|
G|------------7-5-4---------4-5-------|
D|--7---------------7-6---7-----------|
A|----------------------7-------9~----|
E|------------------------------------|

e|--------------------------------------------------|
B|-----5----5----------------------5-----8--7-------|
G|------------7-5-4------------4-5-------------7----|
D|--7---------------7-6---7--7----------------------|
A|----------------------7---------------------------|
E|--------------------------------------------------|

e|--10--12--10--------------------10--12--10--------|
B|--------------13~---12--13~-----------------10~---|
G|--------------------------------------------------|
D|--------------------------------------------------|
A|--------------------------------------------------|
E|--------------------------------------------------|

e|--10--12--10--------------------16--12~--|
B|--------------13--12--13--12-------------|
G|-----------------------------------------|
D|-----------------------------------------|
A|-----------------------------------------|
E|-----------------------------------------|

e|--10--12--10--------------------10--12--10--------|
B|--------------13~---12--13~-----------------10~---|
G|--------------------------------------------------|
D|--------------------------------------------------|
A|--------------------------------------------------|
E|--------------------------------------------------|

e|--10--12--10----------------------12---|
B|--------------13--12--13--12~----------|
G|---------------------------------------|
D|---------------------------------------|
A|---------------------------------------|
E|---------------------------------------|