Login or Register to remove this ad. | Advertise Here

Ilverns Ruins (Ys III: Wanderers from Ys) Guitar Tab

Submitted: Nov 11, 2010 by BacardiBreezer (Last updated: Jul 20, 2011)

5
Average: 5 (2 votes)
Download | Listen
Game: Ys III: Wanderers from Ys
Composer(s): Mieko Ishikawa
Style: Alternate picking, Transcription
Series: Ys

AutoScroll: Slow | Medium | Fast
"Ilvern Ruins"
Ys III: Wanderers From Ys
Composer: Mieko Ishikawa
Tabbed by: BacardiBreezer
11/8/10


e|--20--19---20-20-20-19--20-19-19-17-17---17--16~--|
B|--13--12---13-13-13-12--13-12-12-10-10---10--9----|
G|--------------------------------------------------|
D|--------------------------------------------------|
A|--------------------------------------------------|
E|--------------------------------------------------|

e|--20--19---20-20-20-19--20-19-19-17-17---17-17-17-16--|
B|--13--12---13-13-13-12--13-12-12-10-10---10-10-10-9---|
G|------------------------------------------------------|
D|------------------------------------------------------|
A|------------------------------------------------------|
E|------------------------------------------------------|

e|-----------------------------------------------|
B|------------13-13--12-10-12----9--10-----------|
G|--------14------------------9---------10--8----|
D|--12b14----------------------------------------|
A|-----------------------------------------------|
E|-----------------------------------------------|

e|-------------7-8-10-7--------12-12--10-----10--13--10---12-10-8-12--10-8-7-----8------------|
B|----7-9-10---------------/13------------13---------------------------------9-----9---9-10~--|
G|--9--------------------------------------------------------------------------------9--------|
D|--------------------------------------------------------------------------------------------|
A|--------------------------------------------------------------------------------------------|
E|--------------------------------------------------------------------------------------------|

e|---------------7-8-12-10--------------------------------|
B|--10-10-10-10-------------12--10-12-10-----------10-8~--|
G|----------------------------------------12-----9--------|
D|--------------------------------------------------------|
A|--------------------------------------------------------|
E|--------------------------------------------------------|

e|------------------12-10--12--13---------------------------|
B|--10-10-10--12-13-----------------------------------------|
G|--------------------------------9-10-8-9---9-10--8--9~----|
D|----------------------------------------------------------|
A|----------------------------------------------------------|
E|----------------------------------------------------------|

e|--13--------------------13-15-12--10-12-10--8------7-8-|
B|----------13-12-13--15--------------------------10-----|
G|------14-----------------------------------------------|
D|-------------------------------------------------------|
A|-------------------------------------------------------|
E|-------------------------------------------------------|

e|--------------------------------------------------------------|
B|----------------------------------------12-13-15-17-15--------|
G|--7-7-7-7-9-10----8-8-8-8-10-11-14-13~-----------------16-14~-|
D|--------------------------------------------------------------|
A|--------------------------------------------------------------|
E|--------------------------------------------------------------|

e|---------------------10----|-----------------------12-|----10-12----10--12-13-12|-10-12-10-----------10----|
B|--10-12-13-10--12-13----13-|-12-13-12-10-----10-12----|13--------13-------------|-----------13-12-13----12-|
G|---------------------------|--------------13----------|-------------------------|--------------------------|
D|---------------------------|--------------------------|-------------------------|--------------------------|
A|---------------------------|--------------------------|-------------------------|--------------------------|
E|---------------------------|--------------------------|-------------------------|--------------------------|

e|-----------12--------------------------------------|
B|--13--15--------15--12--15----14~----13~-----------|
G|---------------------------------------------------|
D|------------------------------------------12b14----|
A|---------------------------------------------------|
E|---------------------------------------------------|