Login or Register to remove this ad. | Advertise Here

House (Ys III: Wanderers from Ys) Bass Tab

Submitted: Aug 05, 2011 by auriplane (Last updated: Aug 05, 2011)

5
Average: 5 (1 vote)
Download | Listen
Game: Ys III: Wanderers from Ys
Composer(s): Mieko Ishikawa
Style: Transcription
Series: Ys

AutoScroll: Slow | Medium | Fast
                        Ys III (SNES) - House BASS TAB
                          Composed by Mieko Ishikawa
   
                   Tabbed by auriplane (crystal@panix.com)



        Part A 

G |------------------|------------------|------------------|------------------| 
D |------------------|------------------|------------------|------------------|
A |------------------|5--------------5--|------------------|5--------------5--|
E |5-----------------|------------------|5-----------------|------------------|


G |------------------|------------------|------------------|------------------|
D |------------------|------------------|------------------|---------------5--| 
A |------------------|5--------------5--|------------------|---------5--7-----|
E |5-----------------|------------------|5--------------5--|5-----8-----------|

        Part B

G |------------------|------------------|------------------|------------------|
D |---------------7--|------------5-----|---------------7--|------------5-----|  
A |5--------5--8-----|---------------8--|5--------5--8-----|---------------8--|
E |------------------|5--------5--------|------------------|5--------5--------|


G |------------------|------------------|------------------|------------------|  
D |---------------7--|------------5-----|------------------|---------------6--|
A |5--------5--8-----|---------------8--|------------------|---------7--5-----|
E |------------------|5--------5--------|0--------------0--|0--7--4-----------|

        Part B'

G |------------------|------------------|------------------|------------------|
D |---------------7--|------------5-----|---------------7--|------------5-----| 
A |5--------5--8-----|---------------8--|5--------5--8-----|---------------8--|
E |------------------|5--------5--------|------------------|5--------5--------|


G |------------------|------------------|------------------|------------------|
D |---------------7--|------------5-----|------------------|------------------|  
A |5--------5--8-----|---------------8--|------------------|------------------|
E |------------------|5--------5--------|0--------------0--|0-----4--5--7--8--|

        Repeat back to A.