Login or Register to remove this ad. | Advertise Here

Dark Beasts as Black as Night (Ys III: Wanderers from Ys) Guitar Tab

Submitted: Nov 26, 2010 by BacardiBreezer

0
Download | Listen
Game: Ys III: Wanderers from Ys
Composer(s): Mieko Ishikawa
Style: Alternate picking, Transcription
Series: Ys

AutoScroll: Slow | Medium | Fast
Dark Beasts as Black as Night
Ys III: wanderers From Ys
Composer: Mieko Ishikawa
Tabbed by: BacardiBreezer
11/23/10

e-------------------------------------------------------------
B-------------------------------------------------------------
G--9~--------------------------9~-----------------7--9~-------
D--------8~----7~---------------------8~----7~----------------
A--------------------7~---------------------------------------
E-------------------------------------------------------------

e-------------------------------------------------------------
B--15-----------------------12----------------------12--------
G-------12--15--11-----14------14-12-14----------12-----------
D---------------------------------------14----14--------------
A-------------------------------------------------------------
E-------------------------------------------------------------
									
e--------------------------------------
B----------14---------15-16-17---------
G--12--15--------14--------------------
D--------------------------------------
A--------------------------------------
E--------------------------------------			x2 (last 2 measures)