Login or Register to remove this ad. | Advertise Here

Clock Tower (Ys III: Wanderers from Ys) Bass Tab

Submitted: Aug 05, 2011 by auriplane

5
Average: 5 (1 vote)
Download | Listen
Game: Ys III: Wanderers from Ys
Composer(s): Mieko Ishikawa
Style: Transcription
Series: Ys

AutoScroll: Slow | Medium | Fast
                   Ys III (SNES) - Clock Tower BASS TAB
                         Composed by Mieko Ishikawa

                  Tabbed by auriplane (crystal@panix.com)


Here's another Ys 3 tab.  Hey, why are these songs out of tune on
Youtube, anyway?  They're in tune in the game.  Oh well, I'm still
grateful to the uploader XD


        Part A

G |----------------|----------------|----------------|----------5---6-|
D |----------------|5-555-555-555-55|3-333-333-333-33|2-222-22--------|
A |5-555-555-555-55|----------------|----------------|--------3---4---|
E |----------------|----------------|----------------|----------------|

G |----------------|----------------|----------------|---5---5---5----|
D |----------------|5-555-555-555-55|3-333-333-333-33|----------------|
A |5-555-555-555-55|----------------|----------------|3-3-3-3-3-3-4444|
E |----------------|----------------|----------------|----------------|

G |----------------|----------------|----------------|2-222-22--5---6-|
D |----------------|5-555-555-555-55|3-333-335-555-55|----------------|
A |5-555-555-555-55|----------------|----------------|--------3---4---|
E |----------------|----------------|----------------|----------------|

G |----------------|----------------|----------------|----------------|
D |----------------|5-555-555-555-55|7-777-777-777-77|----------------|
A |5-555-555-555-55|----------------|----------------|5-555-555-555-55|
E |----------------|----------------|----------------|----------------|

        Part B

G |---3---3---3---3|---5---5---5---5|----------------|----------------|
D |----------------|----------------|----------------|----------------|
A |1-1-1-1-1-1-1-1-|3-3-3-3-3-3-3-3-|5-5-3-5---3---5-|--3---5-5---3---|
E |----------------|----------------|----------------|----------------|

G |----------------|---5---5---5---5|----------------|----------------|
D |----------------|----------------|----------------|----------------| x3
A |1-111-111-111-11|3-3-3-3-3-3-3-3-|5-5-3-5---3---5-|--3---5-5---3---|
E |----------------|----------------|----------------|----------------|