Login or Register to remove this ad. | Advertise Here

The Boy's Got Wings (Ys III: Wanderers from Ys) Guitar Tab

Submitted: Nov 26, 2010 by BacardiBreezer (Last updated: Dec 26, 2011)

0
Download | Listen
Game: Ys III: Wanderers from Ys
Composer(s): Mieko Ishikawa
Style: Alternate picking, Transcription
Series: Ys

AutoScroll: Slow | Medium | Fast
The Boy's Got Wings
Ys III: Wanderers From Ys
Composer: Mieko Ishikawa
Tabbed by: Bacardibreezer
11/23/10


e|----1-------------------------------------------|
B|------1-3~--------1-3------1------------1-3~----|
G|--0-------------3------------3-2------3---------|
D|------------------------------------------------|
A|------------------------------------------------|
E|------------------------------------------------|

e|----1-------------------------------------------|
B|------1-3~--------1-3------1--------------------|
G|--0-------------3------------3-2------0---0~----|
D|----------------------------------------3-------|
A|------------------------------------------------|
E|------------------------------------------------|

e|----------------------------------------|
B|----8-----------6-8---8--6-----6~-------|
G|------7-8~----8------------8-------7~---|
D|--8-------------------------------------|
A|----------------------------------------|
E|----------------------------------------|

e|----------------------------------|---------------|
B|-------6-8-------6-8-7~---8--10~--|--7-8-10-11~---|
G|--8~--------8~--------------------|---------------|
D|----------------------------------|---------------|
A|----------------------------------|---------------|
E|----------------------------------|---------------|

e|------------------|
B|--10-13-11-10-11--|
G|------------------|
D|------------------|
A|------------------|
E|------------------| x3

e|------------5------------|
B|--8----6-8------8-6-8~---|
G|-------------------------|
D|-------------------------|
A|-------------------------|
E|-------------------------|