Login or Register to remove this ad. | Advertise Here

Boss Battle (Ys III: Wanderers from Ys) Bass Tab

Submitted: Aug 05, 2011 by auriplane

0
Download | Listen
Game: Ys III: Wanderers from Ys
Composer(s): Mieko Ishikawa
Style: Transcription
Series: Ys

AutoScroll: Slow | Medium | Fast
                 Ys III (SNES) - Boss Battle BASS TAB
                       Composed by Mieko Ishikawa

                Tabbed by auriplane (crystal@panix.com)



G |----------------|------5-----5---|----4---------4-|------3---3-3---|
D |----7-------7---|----------------|----------------|----------------|
A |----------------|3---3---3-3---3-|2-----2-2-2-2---|1---1---1-----1-|
E |5-----5-5-5---5-|----------------|----------------|----------------|


G |----------------|------5-----5---|----4---------4-|------3---------|
D |----7-------7---|----------------|----------------|----------------|
A |----------------|3---3---3-3---3-|2-----2-2-2-2---|1---1---1-2-3---|
E |5-----5-5-5---5-|----------------|----------------|--------------4-|

    NOTE: When you repeat, you can play the first note as an open A,
          to give yourself time to move up to fifth position.