Login or Register to remove this ad. | Advertise Here

Behold!! (Ys III: Wanderers from Ys) Guitar Tab

Submitted: Jan 12, 2011 by BacardiBreezer

0
Download | Listen
Game: Ys III: Wanderers from Ys
Composer(s): Mieko Ishikawa
Style: Transcription
Series: Ys

AutoScroll: Slow | Medium | Fast
Behold! (Galbalan's Threat)
Ys III: Wanderers From Ys
Composer: Mieko Ishikawa
Tabbed by: Bacardibreezer
1/11/11


e|----------------------------------|
B|----------------------------------|
G|--9-8-7-8--9-------9--8--7--------|
D|---------------9------------------|
A|----------------------------------|
E|----------------------------------| x2

e|----------------------------------|
B|--12-11-10-11-12--10--12-11-10----|
G|----------------------------------|
D|----------------------------------|
A|----------------------------------|
E|----------------------------------| x2

e|--12-11-10-11-12------12-11-10----|
B|------------------10--------------|
G|----------------------------------|
D|----------------------------------|
A|----------------------------------|
E|----------------------------------| x2

e|------------6---9------------------7---10----|
B|--------8-----8----------------9-6---9-------|
G|----9-8---9---------------10-7---------------|
D|--8---------------------9--------------------|
A|---------------------------------------------|
E|---------------------------------------------| x2

e|------------------------------------------------------|
B|--14--13--12------------------------------------------|
G|--------------15--14--13--12--------------------------|
D|------------------------------16--15--14--13--12------|
A|--------------------------------------------------16--|
E|------------------------------------------------------|