Login or Register to remove this ad. | Advertise Here

Beat of Destruction (Ys III: Wanderers from Ys) Guitar Tab

Submitted: Jan 11, 2011 by BacardiBreezer (Last updated: Aug 30, 2011)

0
Download | Listen
Game: Ys III: Wanderers from Ys
Composer(s): Mieko Ishikawa
Style: Transcription
Series: Ys

This song is also called Galbalan's Island

AutoScroll: Slow | Medium | Fast
Beat of Destruction (Galbalan's Island)
Ys III: Wanderers From Ys
Composer: Mieko Ishikawa
Tabbed by: Bacardibreezer
1/11/11 Updated 8/28/11

e|-----------------------------------------|-------------------------------------|
B|-----------------------------------------|-------------------------------------|
G|-----------------------------------------|-------------------------------------|
D|---------------------------0-------------|-------------------------------------|
A|------2~--------3~--------------3h5p3-2--|--5---3-2-0----------3-2~------------|
E|--0-1-------0-1--------0-1---------------|-----------------3-5--------3--0-----| x2

e|--------------------------------------------|
B|--------------------------------------------|
G|--------------------------------------------|
D|--------------------------------------------|
A|--5~----3-2-3---2--3--5-------3--2----------|
E|-------------------------------------3~-----|

e|---------------------------------------------------------------|
B|---------------------------------------------------------------|
G|----------------------------------------------------------8~---|
D|-------------------------2~-----4---------------------9--------|
A|--5~----3-2-3---2--3--5------------6~---------6---9-6---6------|
E|--------------------------------------------7---7--------------|