Login or Register to remove this ad. | Advertise Here

Be Careful (Tigray Quarry) (Ys III: Wanderers from Ys) Guitar Tab

Submitted: Nov 27, 2010 by BacardiBreezer (Last updated: Jul 20, 2011)

0
Download | Listen
Game: Ys III: Wanderers from Ys
Composer(s): Mieko Ishikawa
Style: Alternate picking, Transcription
Series: Ys

AutoScroll: Slow | Medium | Fast
Be Careful (Tigray Quarry)
Ys III: Wanderers From Ys
Composer:
Tabbed by: Bacardibreezer
11/25/10
Updated 7/18/11

Guitar 1

e|--------------------|--------------------|--------------------|-------------------------|
B|--------------------|--------------------|--------------------|----------------8--------|
G|----9-8-------9-8---|-----9-8-------9----|----9-8-------9-8---|----9-8-------9----(12s1)|
D|--7-----9---7-------|---7-----9---7---8--|--7-----9---7-------|--7-----9---7------------|
A|--------------------|--------------------|--------------------|-------------------------|
E|--------------------|--------------------|--------------------|-------------------------|

e|-----------------------------------|		|--------------------------------|
B|-----------------------------------|		|--------------------------------|
G|-----------------------------------|		|--------------------------------|
D|--7--7-7--7-7-6---5--5-5--5-5-5----|		|--7--7-7--7-7-6---5---5---------|
A|-----------------------------------|		|--------------------------------|
E|-----------------------------------| x3	|--------------------------------|

e|------------------------------------------------------------------|
B|------------------------------------------------------------------|
G|---------7-9-7-------------------------------7--------------------|
D|--7-9-10-------10-9-7--7--7-----------7-9-10---9------------------|
A|----------------------------10-----10------------10--10-----------|
E|------------------------------------------------------------------|

e|------------------------------------------------------------------|
B|-----------------------------------------------------9------------|
G|---------------------------------7-9-10-9---7---6--------9--------|
D|------------------7-9-6-7---9-10----------9---9-------------------|
A|--10-8---10-7-8---------------------------------------------------|
E|------------------------------------------------------------------|

e|------------------------------------------------------------------|
B|------------------------------------------------------------------|
G|---------7-9-7-------------------------------7--------------------|
D|--7-9-10-------10-9-7--7--7-----------7-9-10---9------------------|
A|----------------------------10-----10------------10--10-----------|
E|------------------------------------------------------------------|

e|----------------------------------------------------------------------|
B|----------------------------------------------------------------------|
G|------------------------7-9-10-9----7---------------------------------|
D|---------------------7------------9---10---10--10---10-10---10---10---|
A|--10-8---10-7-8---10--------------------------------------------------|
E|----------------------------------------------------------------------|

e|-----17----19----20-------17-------19----20----17--|
B|---------------------------------------------------|
G|--14----16----17----14-14----14-16----17----14-----|
D|---------------------------------------------------|
A|---------------------------------------------------|
E|---------------------------------------------------| x4

e|-----------------------17~-------------------------------------16~--|-----------------13-12--|
B|--------------18-20-18----------------15-17-18~------19~------------|-----------15-12--------|
G|-----------------------------------17-------------------------------|-----16-13--------------|
D|--19~---------------------------------------------------------------|--14--------------------|
A|--------------------------------------------------------------------|------------------------|
E|--------------------------------------------------------------------|------------------------|

e|----------------------------------------------|
B|----------------------------------------------|
G|----------7--9---7-------------7--------------|
D|--7--7--7-----------10-7--7-10---10-7--7--7---|
A|---------------7------------------------------|
E|----------------------------------------------| x2

e|--3-----3-----3---3-----3-----3---3-----3-----3---3-----3-----3-----|
B|--------------------------------------------------------------------|
G|----0-0---0-0---0---0-0---0-0---0---0-0---0-0---0---0-0---0-0---0---|
D|--------------------------------------------------------------------|
A|--------------------------------------------------------------------|
E|--------------------------------------------------------------------|


Guitar 2 

e|----------------------------|--------------------------|---------------------------|---------------------------|
B|----------------------------|----------------------11--|---------------------------|---------------------------|
G|--9--12--11----------9--12--|--9--12--11--------9------|--9--12--11---------9--12--|--9--12--11--------9---12--|
D|-------------12-------------|-------------12-----------|-------------12------------|-------------12------------|
A|----------------------------|--------------------------|---------------------------|---------------------------|
E|----------------------------|--------------------------|---------------------------|---------------------------|

e|------------|------------|------------|----------------|
B|---10---8---|---10---8---|---10---8---|---10---8--8----|
G|------------|------------|------------|----------------|
D|------------|------------|------------|----------------|
A|------------|------------|------------|----------------|
E|------------|------------|------------|----------------|

e|-------------------12--------------------------------------------------------12---------12----------13-17----|
B|--13------12-13-15----15-13-12~-----------------12-13-15-------12---------13---------15----13-15-------------|
G|-------14---------------------------12----12-14-------------14----12-14--------------------------------------|
D|---------------------------------------12--------------------------------------------------------------------|
A|-------------------------------------------------------------------------------------------------------------|
E|-------------------------------------------------------------------------------------------------------------|

e|------------------------------------------|
B|--------11-----------------------17-------|
G|--13-14----13------13---------16----------|
D|----------------14----14------------------|
A|-------------------------14---------------|
E|------------------------------------------|

e|-------------------12-----------------------------------------------------------------12-13----------12-15---|
B|--13------12-13-15----15-13-12~-----------------12-13-15-------12---------12-13----15-------15---------------|
G|-------14---------------------------12----12-14-------------14----12-14---------------------------12---------|
D|---------------------------------------12--------------------------------------------------------------------|
A|-------------------------------------------------------------------------------------------------------------|
E|-------------------------------------------------------------------------------------------------------------|

e|--15-12----------------------------------------12--|
B|--------15-13----------------------------13-15-----|
G|--------------14----------------------14-----------|
D|-----------------15-14-12-14----12-14--------------|
A|-----------------------------15--------------------|
E|---------------------------------------------------|

e|------------------12----------|---------------------12---19-17---|
B|---------------13-------13~---|---17-18--17-15---13--------------|
G|--9-10---9-----------14-------|----------------------------------|
D|-----------12-----------------|----------------------------------|
A|------------------------------|----------------------------------|
E|------------------------------|----------------------------------|

e|-----15------------------------------------------------12--|-----16----19-16-22-19---|
B|--18----17-18-----17-18-16-17-----15-----------------------|--------17---------------|
G|--------------------------------------17--16--14--13-------|--16---------------------|
D|-----------------------------------------------------------|-------------------------|
A|-----------------------------------------------------------|-------------------------|
E|-----------------------------------------------------------|-------------------------|

e|-----17----15----17----15----17----15----17----15--|
B|--------17----------17----------17----------17-----|
G|--14----------14----------14----------14-----------|
D|---------------------------------------------------|
A|---------------------------------------------------|
E|---------------------------------------------------| x4

e|--------------------------15---19----|
B|------------------12--15-------------|
G|--------------12---------------------|
D|----------12-------------------------|
A|------14-----------------------------|
E|--15---------------------------------|