Login or Register to remove this ad. | Advertise Here

Opening Theme (XXXHOLiC) Guitar Tab

Submitted: Feb 16, 2012 by Uminari

4.5
Average: 4.5 (2 votes)
Download | Listen
Game: XXXHOLiC
Composer(s): Shikao Suga
Style: Arrangement, Fingerstyle, Natural harmonics

This song is also called 19sai

AutoScroll: Slow | Medium | Fast
                                    19sai                                       

Composed by Shikao Suga
From xxxHOLiC
2006

Arranged by Uminari
February 16th 2012



Acoustic Guitar
113 BPM

     E.  S S S S E  S S Q    S    E  S S S S S E  S S S S S E   
E||----------------------------|------------------------0---3--|
B||----------------------------|-------------------------------|
G||----------------------------|-------------------------------|
D||------2---2-----------------|-------2---2-------------------|
A||--------------0--0----------|---------------0--0------------|
E||--0----------------1--------|--0--0--------------1----------|


  E  S S S S S S S S S S S E  S    E  S S S S S S S S S S S S E   
--L------0-------0-L---0---0----|--0----0-----0-----0-----0---0--|
-----3-------3-------3--------3-|-----3-----3-----3-----3--------|
--------------------------------|--------------------------------|
-------2---2--------------------|-------2---2--------------------|
---------------0---0------------|---------------0---0------------|
--0------------------1----------|--0--0---------------1----------|


                             NH                                  
  E.  S S S S S S S S E.     E     E  S S S S S E  S S S S S E   
----------------0-L-4-----<>12--|------------------------0---3--|
--------------------------------|-------------------------------|
--------------------------------|-------------------------------|
------2---2---------------------|-------2---2-------------------|
--------------0---0-------------|---------------0--0------------|
--0-----------------1-----------|--0--0--------------1----------|


  E  S S S S S S S S S S E  S S    E  S S S S S S S S S S S S E   
--L------0-------0-L---0----0---|--0----0-----0-----0-----0---0--|
-----3-------3-------3--------3-|-----3-----3-----3-----3--------|
--------------------------------|--------------------------------|
-------2---2--------------------|-------2---2--------------------|
---------------0---0------------|---------------0---0------------|
--0------------------1----------|--0--0---------------1----------|


  E.  S S S S E  S S Q    S    E  S S S S S E  S S Q    S  
----------------------------|-----------------------------|
----------------------------|-----------------------------|
----------------------------|-----------------------------|
------2---2-----------------|-------2---2-----------------|
--------------0--0----------|---------------0--0----------|
--0----------------1--------|--0--0--------------1--------|


  ^       v                ^                        ^       v          v   
  Q    E  Q    E  E  E     Q    E  Q     E  Q       Q    E  Q    E  E  E   
--3----0--3----0--3--0--|--3----------------L----|--3----0--3----0--3--0--|
--0----L--2----------L--|--0----3--3h----5-------|--0----L--2-------L--0--|
--0----L--2----------L--|--0----------------L----|--0----L--2-------L--x--|
--0----L--2----------L--|--2----------------L----|--0----L--2-------L--2--|
--2----L--0----------L--|--2----------------L----|--2----L--0-------L--2--|
--3----L----------------|--0----------------L----|--3----L-------------0--|


  ^     ^  ^              ^    ^    ^  v  ^  v        v  ^  v      ^  v   
  E  E  E  E  H           Q    Q    E  E  E  E     E  E  E  Q.     E  E   
-----------------------|--0----0----3--3--3--2--|--L--2--2--0------0--0--|
-----------------------|--0----0----0--0--0--3--|--L--3--3--2------2--2--|
-----------------------|--0----0----0--0--0--2--|--L--2--2--2------2--2--|
--2-----2--2-----------|--2----2----0--0--0--0--|--L--0--0--2------2--2--|
--2-----2--2-----------|--2----2----2--2--2-----|-----------0------0--0--|
--0-----0--0-----------|--0----0----3--3--3-----|------------------------|


  ^    ^    ^  v  ^  v        v  v  v               
  Q    Q    E  E  E  E     E  E  E  E  Q    S S E   
--0----0----3--3--3--2--|--L--2--2--0-------0---3--|
--0----0----0--0--0--3--|--L--3--3--2--------------|
--0----0----0--0--0--2--|--L--2--2--2--------------|
--2----2----0--0--0--0--|--L--0--0--2--------------|
--2----2----2--2--2-----|-----------0--------------|
--0----0----3--3--3-----|--------------------------|


  S S S S S S S S E  S S E  S S    S S S S S S S S S S S S S S E   
--L-------0-------0----0----0---|--0-----0-----0-----0-----0---0--|
------3-------3-2----3--------3-|------3-----3---2-3-----3---3----|
------------2---2---------------|------------2---2----------------|
--2---2-----0---2---------------|--2---2-----0---2----------------|
--2---2---------0---------------|--2---2---------0----------------|
--0---0-------------------------|--0---0--------------------------|


  S S S E  S S S H           S S S E  S S S Q    S S E   
------L-------------------|----------------------0---3--|
-----------3---2----------|-----------3---2-------------|
-----------2---2----------|-----------2---2-------------|
--2---2----0---2----------|--2---2----0---2-------------|
--2---2--------0----------|--2---2--------0-------------|
--0---0-------------------|--0---0----------------------|


  S S S S S S S S E  S S S S S S    S S S S S S S S S S S S S S E   
--L-------0-------0----0-----0---|--0-----0-----0-----0-----0---0--|
------3-------3-2----3-----3---3-|------3-----3---2-3-----3---3----|
------------2---2----------------|------------2---2----------------|
--2---2-----0---2----------------|--2---2-----0---2----------------|
--2---2---------0----------------|--2---2---------0----------------|
--0---0--------------------------|--0---0--------------------------|


  S S S E  S S S H           S S S E  S S S S S S S Q       
------L-------------------|--------------------------------|
-----------3---2----------|-----------3---2---0------------|
-----------2---2----------|-----------2---2-----2----------|
--2---2----0---2----------|--2---2----0---2----------------|
--2---2--------0----------|--2---2--------0---------4br----|
--0---0-------------------|--0---0-------------------------|


  ^       v                ^                        ^       v          v   
  Q    E  Q    E  E  E     Q    E  Q     E  Q       Q    E  Q    E  E  E   
--3----0--3----0--3--0--|--3----------------L----|--3----0--3----0--3--0--|
--0----L--2----------L--|--0----3--3h----5-------|--0----L--2-------L--0--|
--0----L--2----------L--|--0----------------L----|--0----L--2-------L--x--|
--0----L--2----------L--|--2----------------L----|--0----L--2-------L--2--|
--2----L--0----------L--|--2----------------L----|--2----L--0-------L--2--|
--3----L----------------|--0----------------L----|--3----L-------------0--|


  ^     ^  ^     ^  ^        ^  v  ^  v  ^   v  T         ^    ^  v             
  E  E  E  E  E  E  E  E     E  E  E  E  E   E  E   E     Q    E  Q    Q    E   
--------------------------|--3--3--3--3--3h--5--7p--3--|--5----3--2----0----0--|
--------------------------|--0--L--0--L--0---0------L--|--3----L--2----L-------|
--------------------------|--0--L--0--L--0---0------L--|--2----L--2----L-------|
--2-----2--2-----2--2-----|--2--L--2--L--0---0------L--|--0----L--2----L-------|
--2-----2--2-----2--2-----|--2--L--2--L--2---2------L--|----------0----L-------|
--0-----0--0-----0--0-----|--0--L--0--L--3---3------L--|-----------------------|


  ^  v  ^    ^  v  ^  v        v  ^  v    v  ^  v   
  E  E  Q    E  E  E  E     E  E  E  Q    E  E  E   
--3--0--0----0--0-----0--|--L--0--0--0----0--0--0--|
--0-----L----0-----0--0--|--L--0--0--0----0--0--0--|
--0-----L----0-----L--2--|--L--2--2--2----2--2--2--|
--2-----L----0-----L--0--|--L--0--0--2----2--2--2--|
--2-----L----2-----L-----|-----------0----0--0--0--|
--0-----L----3-----L-----|-------------------------|


  ^  v  ^  v  ^   v  T         ^    ^  v              ^        ^              
  E  E  E  E  E   E  E   E     Q    E  Q    Q.        E  E  E  Q    E  E  E   
--3--3--3--3--3h--5--7p--3--|--5----3--2----0------|--------0--7----5--3-----|
--0--L--0--L--0---0------L--|--3----L--2----L------|--0--3-----0----------5--|
--0--L--0--L--0---0------L--|--2----L--2----L------|--0-----L--0----------L--|
--2--L--2--L--0---0------L--|--0----L--2----L------|--2-----L--0----------L--|
--2--L--2--L--2---2------L--|----------0----L------|--2-----L----------------|
--0--L--0--L--3---3------L--|----------------------|--0-----L--3----------L--|


          ^    v  ^  v     ^  v  ^  v  ^   v  T         ^    ^  v            
  Q    E  Q    E  E  E     E  E  E  E  E   E  E   E     Q    E  Q    Q.      
--0-------0----0--0--0--|--3--3--3--3--3h--5--7p--3--|--5----3--2----0------|
--3----0--0----0--0--0--|--0--L--0--L--0---0------L--|--3----L--2----L------|
--2----L--2----2--2--2--|--0--L--0--L--0---0------L--|--2----L--2----L------|
--0----L--2----2--2--2--|--2--L--2--L--0---0------L--|--0----L--2----L------|
----------0----0--0--0--|--2--L--2--L--2---2------L--|----------0----L------|
------------------------|--0--L--0--L--3---3------L--|----------------------|


  ^        ^                        ^    v  ^  v    
  E  E  E  Q    E  E  E     Q    E  Q    E  E  E    
--------0--7----5--3-----|--0-------0----0--0--0--||
--0--3-----0----------5--|--3----0--0----0--0--0--||
--0--------0-------------|--2-------2----2--2--2--||
--2--------0-------------|--0-------2----2--2--2--||
--2----------------------|----------0----0--0--0--||
--0--------3-------------|------------------------||



Duration Legend
---------------
W - whole
H - half
Q - quarter
E - 8th
S - 16th
. - note dotted

Tablature Legend
----------------
L - tied note
x - dead note
g - grace note
> - accentuded note
NH - natural harmonic
h - hammer on
p - pull off
br - bendRelease
\ -  slide into from above or out of downwards
T - tapping
^ - brush up
v - brush down

1 comment on Opening Theme

don´t know the song, but it

4

don´t know the song, but it sounds good :D