Login or Register to remove this ad. | Advertise Here

Tavern (World of Warcraft) Guitar Tab

Submitted: Jun 07, 2009 by kenor (Last updated: Feb 04, 2010)

5
Average: 5 (7 votes)
Download | Listen
Game: World of Warcraft
Composer(s): David Arkenstone, Derek Duke, Jason Hayes
Style: Arrangement, Fingerstyle

AutoScroll: Slow | Medium | Fast
World of Warcraft: Taverns of Azeroth
Alliance Tavern (Burning Crusade version)
Composed by: Jason Hayes
Tabbed and Arranged by: kenor

Rhytm: 6/8 metrum
Playing Instructions: Play Intro, Verse 1, Verse 2 twice and then the final chord :)

Intro:

     E  E  S S Q    S S     E  E  E  S S Q       E  E  S S Q    S S
E||-----0--0---0----0-2--|--3--5--3--2-0------|-----0--0---0----2-0--|
B||----------3-----------|---------------3----|----------3-----------|
G||--2-------------------|--------------------|--2-------------------|
D||----------------------|--------------------|----------------------|
A||--0---------0---------|--0--------0--------|--0---------0---------|
E||----------------------|--------------------|----------------------|

     E  S E  S Q    E     E  E  S S Q    S S     E  E  E  S S E  E
E||--------------------|-----0--0---0----0-2--|--3--5--3--2-0-------|
B||--3--0----0---------|----------3-----------|---------------3-----|
G||-------0----2----0--|--2-------------------|---------------------|
D||--------------------|----------------------|---------------------|
A||--0----0----0-------|--0---------0---------|--0--------0------0--|
E||--------------------|----------------------|---------------------|

     E  E  E  E.  S E     E.  S E  Q.
E||--1--3--1--0--------|--------------------||
B||---------------3-1--|--------------------||
G||--------------------|--2-----0--2--------||
D||--3-----------------|------2-2--2--------||
A||--------------------|--0-----0--0--------||
E||-----------3--------|--------------------||


Verse 1:

     E  E  S S Q    E     E  E  E  S S E  E     E  E  S S Q    E
E||--------------------|---------------------|--------------------|
B||-----------------0--|--1--3--1--0---------|-----------------0--|
G||-----2--2-0-2-------|-------------2-0-----|-----2--2-0-2-------|
D||--2---------2-------|--2--------2---------|--2---------2-------|
A||--0---------0-------|--0--------0------0--|--0---------0-------|
E||--------------------|---------------------|--------------------|

     E  S S E  Q    E     E  E  S S Q    E     E  E  E  S S E  E
E||--------------------|--------------------|---------------------|
B||--1------1--0-------|-----------------0--|--1--3--1--0---------|
G||--0--0--------------|-----2--2-0-2-------|--2----------2-0-----|
D||--2----2----2-------|--2---------2-------|--2--------0---------|
A||--0---------0----0--|--0---------0-------|--0------------------|
E||--------------------|--------------------|-----------3------3--|

     E  E  E  E.  S E     Q    E  Q    E
E||--------------------|------------------||
B||--1-----1--3---1-0--|----------0-------||
G||-----2-----0--------|--2-------2-------||
D||--3--------0--------|--2-------2-------||
A||--------------------|--0----0--0----0--||
E||-----------3--------|------------------||


Verse 2 (Repeat 2x):


     E  E  E  E  E  E     E.  S E  Q     E     E.  S E  E  E  E
E||--------0--3--2--0--|--2---0----0--------|--------------------|
B||--------------------|--------3-----------|------0-1--0--1--3--|
G||-----2--------------|-----------2--------|--2-----------------|
D||--------------------|--------------------|--2--------2--------|
A||--0--------0--------|--0--------0-----0--|--0--------0--------|
E||--------------------|--------------------|--------------------|

     Q    E  Q    E     E  E  E  E  E  E     E.  S E  Q    E
E||--0---------------|--------0--3--2--0--|--2---0----0-------|
B||--0---------------|--------------------|--------3--0-------|
G||--2----2--2-------|-----2--------------|-----------2-------|
D||----------2-------|--------------------|-------------------|
A||--0-------0----0--|--0--------0--------|--0--------0----0--|
E||------------------|--------------------|-------------------|

     E  E  E  E.  S E     Q    E  Q    E
E||--------------------|------------------||
B||--1-----1--3---1-0--|------------------||
G||-----2-----0--------|--2----2--2-------||
D||--3-----------------|--2---------------||
A||--------------------|--0-------0----0--||
E||-----------3--------|------------------||


Last chord:


E||---0---||
B||---0---||
G||---2---||
D||---2---||
A||---0---||
E||-------||


Legend:
-------

Q - half
E - quarter
S - 8th
. - dotted

4 comments on Tavern

midi version

Hello, thanks for tab, is it possible to make a midi version of it? :) Sorry for asking. It's just because I'm not so familiar with guitar tabs :)

midi

Done, you have it under the download link

Great, thanks! :D

Great, thanks! :D

5/5 Great tab !! I love that

5

5/5 Great tab !! I love that