Login or Register to remove this ad. | Advertise Here

Smash Smash Smash! (Virtua Tennis) Guitar Tab

Submitted: Jan 17, 2010 by LTRobson (Last updated: Jan 17, 2010)

0
Download | Listen
Game: Virtua Tennis
Composer(s): Unknown
Style: Alternate picking, Transcription

AutoScroll: Slow | Medium | Fast
Virtua Tennis - Smash, Smash, Smash (Dreamcast)
Tabbed by LTRobson 16/06/07

Standard tuning
Fret the F bass note with your thumb
Underscores are palm mutes

|-----------------------------------------------------------|
|-----------------------------------------------------------|
|---------1-----1-------1--3------------1-----1h3-1---------|
|-1h3-----1-----1-------1--3----1h3-----1-----1h3-1-3-1---1-|
|-1h3---------------------------1h3-----------------3-1---1-|
|-----1-1---1-1----1-1--------------1-1---1-1---------------|
      - -   - -    - -              - -   - -

|-----------------------------------------------------------|
|-------------------------------------------------------3---|
|---------1-----1-------1--3------------1-----1h3-1-------1-|
|-1h3-----1-----1-------1--3----1h3-----1-----------3-1-----|
|-1h3---------------------------1h3-------------------------|
|-----1-1---1-1----1-1--------------1-1---1-1---------------|
      - -   - -    - -              - -   - -

|-------------------------------------------------------|
|-------------------------------------------------------|
|---------1-----1-------1--3------------1---------------|
|-1h3-----1-----1-------1--3----1h3-----1-----0---1---2-|
|-1h3---------------------------1h3-----------0---1---2-|
|-----1-1---1-1----1-1--------------1-1---1-1-----------|
      - -   - -    - -              - -   - -

|----------------------------|
|----------------------------|
|---------1-----1-------1--3-|
|-1h3-----1-----1-------1--3-|
|-1h3------------------------|
|-----1-1---1-1----1-1-------|
      - -   - -    - -

|-------------------------------------------------------------------|
|-4---3------------6---5-----------4---3----------------------------|
|-3-------3--------5------5--------3-------3----------5--x--5--x--5-|
|-3-------3--------5------5--------3-------3----------5--x--5--x--5-|
|-1-------1--------3------3--------1-------1----------3--x--3--x--3-|
|-------------------------------------------------------------------|