Login or Register to remove this ad. | Advertise Here

Grand Fonic Hymn (Tales of the Abyss) Guitar Tab

Submitted: Sep 06, 2009 by kenor (Last updated: Feb 06, 2010)

5
Average: 5 (4 votes)
Download | Listen
Game: Tales of the Abyss
Composer(s): Motoi Sakuraba, Shinji Tamura, Motoo Fujiwara
Style: Arrangement, Fingerstyle

AutoScroll: Slow | Medium | Fast
Grand Fonic Hymn
~Tales of the Abyss~
Composed by: Motoi Sakuraba, Shinji Tamura
Arranged by: kenor

Rhytm: 4/4 metrum
Capo 5   

                            ^         ^           ^
     Q    Q    Q    Q       Q    Q    H           E  E  E  E  Q    Q
E||----------------------|---------------------|------------------------|
B||-----------------1----|--0----3-------------|--1--0-----3--0---------|
G||-------0----2---------|--0---------2--------|--------2----------0----|
D||--0-------------------|------------0--------|--2---------------------|
A||------------3---------|---------------------|--0-----------2---------|
E||--3-------------------|--3---------2--------|--------------0---------|

     ^                                 ^            ^
     Q.     E  Q    Q       E  E  E    Q.     E     Q    E  E  H
E||----------------------|--------------------0--|----------------------|
B||---------0------------|-----------------------|--3----0--3--1--------|
G||------------2---------|-----0--2--------------|--0-------------------|
D||--2---------0---------|--4----------0---------|-------------2--------|
A||--3--------------0----|--5----------3---------|--2----------3--------|
E||--3-------------------|-------------2---------|----------------------|

     ^                         ^        ^                      ^
     E  E  E  E  Q    E  E     H        H           E  E  Q    H
E||-------------------------|--------------------|--2--0--2----3--------|
B||--0-----1--0-------------|--------------------|--1----------0--------|
G||-----0--------2----0-----|--2--------0--------|----------------------|
D||--0-----------0-------4--|--0--------0--------|--0-------------------|
A||--2----------------------|--3--------2--------|-------------2--------|
E||--------------2----------|--3--------3--------|----------------------|

                 ^           ^           ^            ^         ^
     E  E  E  E  H           E  E  E  E  Q    Q       Q.     E  E  E  Q
E||--2--0--2--5--3--------|-----------0-------3----|-----------------------|
B||--1-----------0--------|--1--0--1-----3---------|--1------0-------------|
G||-----------------------|--------------0---------|--0---------2--0-------|
D||--0--------------------|--2---------------------|--2---------4-----4----|
A||--------------2--------|--0---------------------|--3---------5----------|
E||-----------------------|--------------3---------|-----------------------|

     ^
     Q    Q    Q    E  E     Q    H.              E  E  E  E  E  E  E  E
E||-------1----0----------|-------3------------|--------------------------|
B||-----------------1--3--|--------------------|--------------------1-----|
G||--0--------------------|--0-----------------|--------0-----2--------0--|
D||--0--------------------|--------------------|--0--------0-----2--------|
A||-----------------------|--------------------|-----2--------3-----------|
E||--3--------------------|--------------------|--3-----------------------|


     E  E  E  E  E  E  E  E     E  E  E  E  E  E  E  E
E||--------------------------|--------------------------|
B||--0-----3-----------------|--1--0-----3--0-----------|
G||-----------0--2-----------|--------2-----------0-----|
D||-----0--------------0-----|--------2--------2--------|
A||-----------------0-----0--|--0--------------------2--|
E||--3-----------2-----------|--------------0-----------|


     E  E  E  E  E  E  E  E     E  E  E  E  E  E  E  E
E||--------------------------|-----------------------0--|
B||-----------0--------------|--------------------------|
G||--------------2-----------|-----0--2-----------------|
D||--2--------------4--------|--4-----------0-----------|
A||--3-----3-----5-----5-----|--3--------3-----0--------|
E||-----3-----------------2--|--------------2-----2-----|


     E  E  E  E  E  E  E  E     E  E  E  E  E  E  E  E
E||--------------------------|--------------------------|
B||--3-----0--3--1-----------|--0-----1--0--------------|
G||--------------------0-----|-----0--------2-----0-----|
D||--------0--------2-----2--|--------0--------0-----4--|
A||-----2--------3-----------|--------------------------|
E||--3-----------------------|--3-----------2-----------|


     E  E  E  E  E  E  E  E     E  E  E  E  E  E  E  E
E||--------------------------|--2--0--2-----3-----------|
B||--------------------------|-----------1-----------0--|
G||--2-----------0-----------|--------2-----------0-----|
D||--------0-----------0-----|--0--------------0--------|
A||-----3-----3-----2-----2--|--------------2-----------|
E||--3-----------3-----------|--------------------------|


     E  E  E  E  E  E  E  E     E  E  E  E  E  E  E  E
E||--2--0--2--5--3-----------|-----------0--------3-----|
B||--------------------------|--1--0--1-----3-----------|
G||--------------------0-----|-----------------------0--|
D||--0--------------0-----0--|--------2-----------0-----|
A||--------3-----2-----------|--0--------------2--------|
E||--------------------------|--------------3-----------|

                                ^         ^
     E  E  E  E  E  E  E  E     Q    Q    Q    E  E     Q    H.
E||--------------------------|-------1----0----------|-------3------------||
B||--1--------0--------------|-----------------1--3--|--------------------||
G||--------0-----2--0--------|--0---------0----------|--0-----------------||
D||-----2--------0-----4-----|--0--------------------|--------------------||
A||--3-----------------5-----|-----------------------|--------------------||
E||-----------------------5--|--3---------3----------|--------------------||


Legend:
-------

H - half
Q - quarter
E - 8th
. - dotted
^ - brush up


Lyrics:
-------

Tue rei ze croa riou tue ze
Croa riou ze tue riou rei neu riou ze
Va rei ze tue neu tue riou tue croa
Riou rei croa riou ze rei va ze rei
Va neu va rei va neu va ze rei
Croa riou croa neu tue rei croa riou ze rei va
Rei va neu croa tue rei rei

1 comment on Grand Fonic Hymn

Yup!

5

Another favorite! Thanks for this tab. I made a video recording of it.