Login or Register to remove this ad. | Advertise Here

Wavy Beach 2 (Super Princess Peach) Bass Tab

Submitted: Aug 05, 2010 by auriplane

0
Download | Listen
Game: Super Princess Peach
Composer(s): Akira Fujiwara
Style: Transcription
Series: Mario

This song is also called スイスイビーチ2

AutoScroll: Slow | Medium | Fast
           Super Princess Peach - Wavy Beach 2 BASS TAB
                   Composed by Akira Fujiwara

              Tabbed by Auriplane (crystal@panix.com)


Four-string bass, standard tuning.  This song has a 16th note
"triplet feel", which means it's kind of bouncy :-)  Just listen
and you should get it.



        Part A

G |------------------------|------------------------|
D |-----7------------------|-----7------------------|
A |--------7------5----7---|--------7------5----7---|
E |5--------5--------------|5--------5--------------|


G |-----6-----------5------|-----4------------------|
D |------------------------|------------2-----------|
A |4--------4--3--------3--|2--------2--------------|
E |------------------------|-----------------0------|


        Part B

G |------------------------|------------------------|  \
D |-----7------------------|-----9------------------|   \
A |--------7------7--------|------------7-----------|    |
E |5--------5----------5---|7--------7-------0---0--|    |
                                                         |
                                                         |
G |------------------------|--------------9--9------|    |
D |-----7---------7--------|---9----------------9---|    |
A |--------7---------------|-----------7---------7--|    |
E |5--------5----------5---|7----7--7---------------|    |
                                                         | x2
                                                         |
G |------------------------|------------------------|    |
D |-----7------------------|-----9------------------|    |
A |--------7------7--------|------------7-----------|    |
E |5--------5----------5---|7--------7-------0---0--|    |
                                                         |
                                                         |
G |------------------------|---6--5-5--4------------|    |
D |-----7------------------|------------------2-----|    |
A |--------7--------2--3---|4-------------2---------|   /
E |5-----------5-----------|---------------------0--|  /


        Part C

G |------------------------|
D |3--------3--2----2---2--|
A |------------------------|
E |-----1------------------|


        Repeat back to Part A :-)