Login or Register to remove this ad. | Advertise Here

Light World (Legend of Zelda: A Link to the Past) Guitar Tab

Submitted: Oct 03, 2007 by nozzie

4
Average: 4 (3 votes)
Download | Listen
Game: Legend of Zelda: A Link to the Past
Composer(s): Koji Kondo
Style: 2 or more instruments, Transcription
Series: Legend of Zelda

AutoScroll: Slow | Medium | Fast
Hey Heres the light world to Link to the past. Had it on my laptop When it
was stolen but it was just returned by Cops Wewt!

Intro
  Q=150
  Bb5                       G#5Bb5
4/4
  Gtr III
|----------------------|----------------------|
|----------------------|----------------------|
|----------------------|----------------------|
|--8-----(8)---8--8--8-|--8--6--8-----8--8--8-|
|--8-----(8)---8--8--8-|--8--6--8-----8--8--8-|
|--6-----(6)---6--6--6-|--6--4--6-----6--6--6-|
|
| Gtr I
|----------------------|----------------------|
|-11----(11)--11-11-11-|-11--9-11----11-11-11-|
|----------------------|----------------------|
|----------------------|----------------------|
|----------------------|----------------------|
|----------------------|----------------------|
|
| Gtr II
|----------------------|----------------------|
|----------------------|----------------------|
|-10----(10)--10-10-10-|-10-10-10----10-10-10-|
|-10----(10)--10-10-10-|-10-10-10----10-10-10-|
|-13----(13)--13-13-13-|-13-13-13----13-13-13-|
|----------------------|----------------------|

     G#5Bb5                 F5
|----------------------|----------------------------------|
|----------------------|----------------------------------|
|----------------------|----------------------------------|
|--8--6--8-----8--8--8-|--8--3--3--3--3--3--3--3--3--3--3-|
|--8--6--8-----8--8--8-|--8--3--3--3--3--3--3--3--3--3--3-|
|--6--4--6-----6--6--6-|--6--1--1--1--1--1--1--1--1--1--1-|
|
|----------------------|----------------------------------|
|-11--9-11----11-11-11-|-11-------------------------------|
|----------------------|----10-10-10-10-10-10-10-10-10-10-|
|----------------------|----------------------------------|
|----------------------|----------------------------------|
|----------------------|----------------------------------|
|
|----------------------|----------------------------------|
|----------------------|----------------------------------|
|-10-10-10----10-10-10-|-10-------------------------------|
|-10-10-10----10-10-10-|-10--9--9--9-10-10-10-11-11-11-11-|
|-13-13-13----13-13-13-|-13-10-10-10-11-11-11-12-12-12-12-|
|----------------------|----------------------------------|

   Main Theme
    Bb                         Ab
    Gtr I
||---------------------------|--------------------------------16-|
||o--------------------15-16-|-18-(18)--------------18--18-19----|
||--15--------15-15-17-------|-----------------------------------|
||------15-------------------|-----------------------------------|
||o--------------------------|-----------------------------------|
||---------------------------|-----------------------------------|
|
|   Gtr II
||---------------------------|-----------------------------------|
||o--------------------------|-----------------------------------|
||---------------------------|--------------7-8-10-(10)----------|
||-------8-------------------|------8--8-10----------------------|
||o---------8----------------|-----------------------------------|
||---------------------------|-----------------------------------|

  Gb                              Db
|-18-(18)-----------18-18-16----|-16------------------|
|----------------------------19-|----19-18--------18--|
|-------------------------------|---------------------|
|-------------------------------|---------------------|
|-------------------------------|---------------------|
|-------------------------------|---------------------|
|
|-------------------------------|---------------------|
|-------------------------------|---------------------|
|---------------5-6-------------|---------------------|
|-----------6-8-----------------|---------------------|
|------9--9-------------9-------|--8-------8-6-8------|
|-------------------------------|---------------------|

  B                           Bb
|---------------------------|---------------------------|
|-16-16-18-19---------18-16-|-14-14-16-18---------16-14-|
|---------------------------|---------------------------|
|---------------------------|---------------------------|
|---------------------------|---------------------------|
|---------------------------|---------------------------|
|
|---------------------------|---------------------------|
|---------------------------|---------------------------|
|---------------------------|---------------------------|
|------------------8--------|---------------------------|
|--9--------9-9-11----------|--8--------8-8-9-11--------|
|---------------------------|---------------------------|

  C                              F                          G  A
|------------------------------|----------------------------------|
|----------17------------20----|-18-18-18-18-18-18-18-18-18-18-18-|
|-17-17-19---------------------|----------------------------------|
|------------------------------|----------------------------------|
|------------------------------|----------------------------------|
|------------------------------|----------------------------------|
|
|------------------------------|----------------------------------|
|------------------------------|----------------------------------|
|------------------------------|----------------------------------|
|--------------------5-7--8-10-|--7-----------------7-------------|
|--7--------7-7-8-10-----------|----------------------------------|
|------------------------------|----------------------------------|

  Bb                         Ab
|--------------------------|--------------------------------16-|
|--------------------15-16-|-18-(18)--------------18--18-19----|
|-15--------15-15-17-------|-----------------------------------|
|-----15-------------------|-----------------------------------|
|--------------------------|-----------------------------------|
|--------------------------|-----------------------------------|
|
|--------------------------|-----------------------------------|
|--------------------------|-----------------------------------|
|--------------------------|--------------7-8-10-(10)----------|
|------8-------------------|------8--8-10----------------------|
|---------8----------------|-----------------------------------|
|--------------------------|-----------------------------------|

  Gb                           F
|-18-(18)-----------(18)-21--|-20--17---------|
|----------------------------|------------18--|
|----------------------------|----------------|
|----------------------------|----------------|
|----------------------------|----------------|
|----------------------------|----------------|
|
|----------------------------|----------------|
|----------------------------|----------------|
|---------------5-6----------|----------------|
|-----------6-8--------------|---------7------|
|------9--9---------------9--|--8-------------|
|----------------------------|----------------|

  Gm6/E             F               Gm6/E             Am      F
|-------------18--|-17------------|-------------18--|-17--------------|
|-19--------------|-----18----18--|-19--------------|-----18-----15---|
|-----------------|---------------|-----------------|-----------------|
|-----------------|---------------|-----------------|-----------------|
|-----------------|---------------|-----------------|-----------------|
|-----------------|---------------|-----------------|-----------------|
|
|-----------------|---------------|-----------------|-----------------|
|---------8-------|---------------|---------8-------|-----------------|
|-----9--(9)------|--5------------|-----9--(9)------|--5--------------|
|--8--8--(8)------|--7---------7--|--8--8--(8)------|--7------7-------|
|--7--------------|--8---------8--|--7--------------|---------8-------|
|-----------------|---------------|-----------------|-----------------|

  B                  Bb
|------------------|-------------------|
|-16-----------19--|-18----------------|
|------------------|-----18--------15--|
|------------------|-------------------|
|------------------|-------------------|
|------------------|-------------------|
|
|------------------|-------------------|
|------------------|-------------------|
|------------------|-------------------|
|------------------|-------------------|
|--9--9-9-8-9------|--8---8-8-6-8------|
|------------------|-------------------|

  C                              F                          G  A
|------------------------15----|-------------------------------------||
|-------15-17------------------|-18-18-18-18-18-18-18-18-18-18-18---o||
|-17-17------------------------|-------------------------------------||
|------------------------------|-------------------------------------||
|------------------------------|------------------------------------o||
|------------------------------|-------------------------------------||
|
|------------------------------|-------------------------------------||
|------------------------------|------------------------------------o||
|------------------------------|-------------------------------------||
|--------------------5-7--8-10-|--7-----------------7----------------||
|--7--------7-7-8-10-----------|------------------------------------o||
|------------------------------|-------------------------------------||

5 comments on Light World

Wow, great tab, thanks alot!

Wow, great tab, thanks alot!

btw the small o means

btw the small o means repeate srry forgot to mention

GG

GG

Cool!!!!

Cool!!!!

does anyone no of any other

does anyone no of any other sites that have game tabs?! dont get me wrong iv googled game tabs a dozen times and this is by far the best site but i need MORE gametabs.....anyone no anymore sites?