Login or Register to remove this ad. | Advertise Here

A Wish (Secret of Mana) Guitar Tab

Submitted: Nov 29, 2007 by ronito (Last updated: Oct 04, 2009)

5
Average: 5 (5 votes)
Download | No audio :(
Game: Secret of Mana
Composer(s): Hiroki Kikuta
Style: Arrangement, Fingerstyle
Series: Mana

AutoScroll: Slow | Medium | Fast
     E  E  Q.     S. T    E  E  Q.     S. T    E  E  Q.     S. T  
E||--------3------L----|--------0------L----|--------3------L----|
B||--------1------L----|--------------------|--------1------L----|
G||--------2------L----|--------2------L----|--------2------L----|
D||-----2--------------|--------3------L----|-----2--------------|
A||--0-----------------|-----3--------------|--0-----------------|
E||--------------------|--1-----------------|--------------------|


  E  E  Q.     S. T    E  E  E  E  E  E     E  E  E  E  Q     
--------0------L----|--------3-----------|--------0----------|
--------------------|--------0--1--3-----|--------1--0--1----|
--------2------L----|--------------4--0--|--------------0----|
--------3------L----|-----0--------------|-------------------|
-----3--------------|--------------------|-----3-------------|
--1-----------------|--3-----------------|--1----------------|


  E  E  E  E  E  E     E  E  E  E  E  E     E  H        S. T  
--------3-----------|--------0-----------|-------------------|
--------0--1--3-----|--------1--0--1-----|-------------------|
--------------4--0--|--------------0-----|-------------------|
-----0--------------|-----------------0--|--2--0--------L----|
--------------------|-----3-----------2--|--3--2--------L----|
--3-----------------|--1--------------3--|-------------------|


  E  H        S. T    E  E  Q    Q       E  E  Q    Q       E  E  E  E  E  E   
-------------------|--------5---------|--------3---------|--------5--7--5-----|
-------------------|------------------|--------0---------|--------------------|
-------------------|--------5---------|--------0---------|--------5-----------|
-----0--------L----|--3--2--7---------|-------------0----|--3--2--7-----------|
--3--2--------L----|-------------7----|--7--5------------|-----------------7--|
--5----------------|------------------|------------------|--------------------|


  E  E  E  E  Q       E  E  E  E  Q       E  E  Q    Q       E  E  E  E  E  E   
-----------1--0----|-------------------|------------------|-----------------1--|
--8-----0----------|--3--------1--0----|--1--0-------1----|--3-----------1-----|
--------0----------|--------2----------|--------2---------|--------------------|
-----0--------0----|--0-----3----------|--------2---------|--------0--3--------|
--7----------------|-----3--------3----|--3-----2---------|--1-----1-----------|
-------------------|-------------------|-----3-------3----|-----1--------------|


  E  E  E  E  E  E     E  E  E  E  E  E     E  E  E  E  E  E   
--5--1--------------|-----------------1--|--5--1--------------|
--------3-----------|--3-----------1-----|--------3-----------|
-----------0--------|--------------------|-----------0--------|
--------------------|--------0--3--------|--------------------|
--------------3-----|--3-----3-----------|--------------3-----|
-----------------3--|-----3--------------|-----------------3--|


  E  E  Q.     S. T    E  E  Q.     S. T    E  E  Q.     S. T  
--------3------L----|--------0------L----|--------3------L----|
--------1------L----|--------------------|--------1------L----|
--------2------L----|--------2------L----|--------2------L----|
-----2--------------|--------3------L----|-----2--------------|
--0-----------------|-----3--------------|--0-----------------|
--------------------|--1-----------------|--------------------|


  E  E  Q.     S. T    E  E  E  E  E  E     E  E  E  E  Q     
--------0------L----|--------3-----------|--------0----------|
--------------------|--------0--1--3-----|--------1--0--1----|
--------2------L----|--------------4--0--|--------------0----|
--------3------L----|-----0--------------|-------------------|
-----3--------------|--------------------|-----3-------------|
--1-----------------|--3-----------------|--1----------------|


  E  E  E  E  E  E     E  E  E  E  E  E     E  H        S. T  
--------3-----------|--------0-----------|-------------------|
--------0--1--3-----|--------1--0--1-----|-------------------|
--------------4--0--|--------------0-----|-------------------|
-----0--------------|-----------------0--|--2--0--------L----|
--------------------|-----3-----------2--|--3--2--------L----|
--3-----------------|--1--------------3--|-------------------|


  E  H        S. T    E  E  Q    Q       E  E  Q    Q       E  E  E  E  E  E   
-------------------|--------5---------|--------3---------|--------5--7--5-----|
-------------------|------------------|--------0---------|--------------------|
-------------------|--------5---------|--------0---------|--------5-----------|
-----0--------L----|--3--2--7---------|-------------0----|--3--2--7-----------|
--3--2--------L----|-------------7----|--7--5------------|-----------------7--|
--5----------------|------------------|------------------|--------------------|


  E  E  E  E  Q       E  E  E  E  Q       E  E  Q    Q       E  E  E  E  E  E   
-----------1--0----|-------------------|------------------|-----------------1--|
--8-----0----------|--3--------1--0----|--1--0-------1----|--3-----------1-----|
--------0----------|--------2----------|--------2---------|--------------------|
-----0--------0----|--0-----3----------|--------2---------|--------0--3--------|
--7----------------|-----3--------3----|--3-----2---------|--1-----1-----------|
-------------------|-------------------|-----3-------3----|-----1--------------|


  E  E  E  E  E  E     E  E  E  E  E  E     E  E  E  E  E  E    
--5--1--------------|-----------------1--|--5--1--------------||
--------3-----------|--3-----------1-----|--------3-----------||
-----------0--------|--------------------|-----------0--------||
--------------------|--------0--3--------|--------------------||
--------------3-----|--3-----3-----------|--------------3-----||
-----------------3--|-----3--------------|-----------------3--||




Duration Legend
---------------
W - whole
H - half
Q - quarter
E - 8th
S - 16th
T - 32nd
X - 64th
. - note dotted
|-n-|  - n-tuplets


Tablature Legend
----------------
L - tied note
x - dead note
g - grace note
(n) - ghost note
> - accentuded note
NH - natural harmonic
AH - artificial harmonic
TH - tapped harmonic
SH - semi harmonic
PH - pitch harmonic
h - hammer on
p - pull off
b - bend
br - bendRelease
pb - preBend
pbr - preBendRelease
brb - bendReleaseBend
\n/ - tremolo bar dip
\n - tremolo bar dive
-/n - tremolo bar Release up
/n\ - tremolo bar inverted dip
/n - tremolo bar return
-\n - tremolo bar Release down
S - shift slide
s - legato slide
/ -  slide into from below or out of upwards
\ -  slide into from above or out of downwards
~ - vibrato
W - wide vibrato
tr - trill
TP - tremolo picking
T - tapping
S - slap
P - pop
< - fade in
^ - brush up
v - brush down

2 comments on A Wish

Wow this is such a beautiful

5

Wow this is such a beautiful piece it makes me shiver..
I can still feel it. Thx so much!

Have I mentioned you're my

Have I mentioned you're my favorite tabber?

this is my favorite song from this game. so far we seem to have similar taste in game songs that we'd like to see arrangements of. And similar taste in movies too, for that matter. All your work is great.