Login or Register to remove this ad. | Advertise Here

The Shire (Lord of the Rings) Guitar Tab

Submitted: Oct 03, 2007 by ronito (Last updated: Sep 19, 2009)

5
Average: 5 (2 votes)
Download | Listen
Game: Lord of the Rings
Composer(s): Charles Deenan
Style: Arrangement, Fingerstyle

AutoScroll: Slow | Medium | Fast
Acoustic Guitar
     H        Q       H         Q       H         Q       H        Q
E||--7--------5----|--7--------10----|--9--------10----|--7-------------|
B||----------------|-----------------|-----------------|----------------|
G||----------------|-----------------|-----------------|----------------|
D||----------------|-----------------|-----------------|----------------|
A||----------------|-----------------|-----------------|----------------|
E||----------------|-----------------|-----------------|----------------|

  H        Q       H         Q       Q.     E  Q       H        Q
--7--------5----|--7--------10----|--9------7--5----|--2-------------|
----------------|-----------------|-----------------|----------------|
----------------|-----------------|-----------------|----------------|
----------------|-----------------|-----------------|----------------|
----------------|-----------------|-----------------|----------------|
----------------|-----------------|-----------------|----------------|

  H        Q       H         E.  Q     Q        Q.      E  Q
--7--------5----|--7--------10---7----10----|--12------10--9----|
----------------|---------------------------|-------------------|
----------------|---------------------------|-------------------|
----------------|---------------------------|-------------------|
----------------|---------------------------|-------------------|
----------------|---------------------------|-------------------|

  Q    Q    Q       Q.     E  Q       Q    Q    Q       H.
--7----3----5----|--7------5--3----|--2----0---------|--0------------|
-----------------|-----------------|------------4----|---------------|
-----------------|-----------------|-----------------|---------------|
-----------------|-----------------|-----------------|---------------|
-----------------|-----------------|-----------------|---------------|
-----------------|-----------------|-----------------|---------------|

  H        Q       H        Q       H         Q       H         Q
--L-------------|--7--------5----|--7--------10----|--9--------10----|
----------------|--0-------------|--0--------------|-----------------|
----------------|----------------|-----------------|--6--------------|
----------------|----------------|-----------------|--7--------------|
----------------|--7-------------|--7--------------|-----------------|
----------------|----------------|-----------------|-----------------|

  H        Q       H        Q       H         Q       Q.     E  Q
--7-------------|--7--------5----|--7--------10----|--9------7--5----|
--0-------------|--0-------------|--0--------------|-----------------|
--0-------------|----------------|-----------------|--6--------------|
----------------|----------------|-----------------|--7--------------|
----------------|--7-------------|--7--------------|--0--------------|
----------------|----------------|-----------------|-----------------|

  H        Q       H        Q       H         E.  Q     Q
--2-------------|--7--------5----|--7--------10---7----10----|
--3-------------|--0-------------|--0------------------------|
----------------|----------------|---------------------------|
--0-------------|----------------|---------------------------|
----------------|--7-------------|--7------------------------|
----------------|----------------|---------------------------|

   Q.      E  Q       Q    Q    Q       Q.     E  Q       Q    Q    Q
--12------10--9----|--7----3----5----|--7------5--3----|--2----0---------|
-------------------|--0--------------|--0--------------|--3---------4----|
-------------------|-----------------|-----------------|-----------------|
--11---------------|-----------------|-----------------|--0--------------|
---0---------------|--7--------------|--7--------------|-----------------|
-------------------|-----------------|-----------------|-----------------|

  H.              H.              Q.     E  Q       Q    E  E  Q
--0------------|--2------------|-----------------|------------------|
--0------------|--3------------|--0--------------|-------------1----|
---------------|---------------|--0------2--0----|--2----0-----0----|
--2------------|--4------------|--0--------------|--2-------4-------|
---------------|---------------|--2--------------|------------------|
---------------|---------------|--3--------------|------------------|

  Q    Q    Q       H.              Q.     E  Q       Q    Q    Q
-----------------|---------------|-----------------|------------0----|
------------0----|---------------|------------0----|--3--------------|
--2--------------|--0------------|--0------2-------|--2--------------|
--4----2----0----|--0------------|--0--------------|-------4----0----|
-----------------|--2------------|--2--------------|-----------------|
-----------------|--3------------|--3--------------|-----------------|

  H        Q       H.              Q.     E  Q       Q    Q    Q
----------------|--2------------|--3------5--7----|--5----3----2----|
--0--------4----|---------------|-----------------|-----------------|
----------------|---------------|-----------------|-------2---------|
--2-------------|--4------------|--0--------------|--4---------0----|
----------------|---------------|-----------------|-----------------|
----------------|---------------|--3--------------|-----------------|

  Q    E  E  E  E     H        Q       Q.     E  E.  S    Q    Q    Q
--0-------2--3--5--|--3-------------|--0------3--3---3-|--2----3----5----|
-------------------|-----------3----|--1---------------|-----------------|
-------------------|----------------|------------------|-----------------|
-------2-----------|----------------|------------------|--4----2----0----|
--2----------2-----|--2-------------|------------------|-----------------|
-------------------|--3-------------|------------------|-----------------|

  H        E  S S    H        E  S S    Q    E  E   Q       Q    Q    Q
--3--------0--2-3-|--5-----------2-5-|--7-------8--10----|--8----7----5----|
--0--------0------|------------------|--------------0----|-----------------|
-----------0------|--2---------------|-------0-----------|-----------------|
--2---------------|--4---------------|--0----------------|--7----4----0----|
------------------|------------------|-------------------|-----------------|
------------------|------------------|-------------------|-----------------|

  Q    E  E  Q       H.              Q    E  E  E.  S    Q    Q    E.  S
--3-------5--7----|--5------------|--2-------0------2-|--8----7----5---0-|
------------------|---------------|--3----------3-----|------------------|
------------------|--2------------|-------2-----------|------------------|
-------0----------|--4------------|-------------4-----|------------------|
--2----------2----|---------------|-------------------|--7---------------|
------------------|---------------|-------------------|-------7----3-----|

  Q    Q    Q       H.              Q    E  E   Q       Q    Q    Q
--3----5----2----|--0------------|--7-------8--10----|--8----7----5----|
-----------------|---------------|--------------0----|-----------------|
-----------------|---------------|-------0-----------|-----------------|
-------4----0----|--2------------|--0----------------|--7----4----0----|
--0--------------|--2------------|-------------------|-----------------|
-----------------|---------------|-------------------|-----------------|

  Q    E  E  E.  S    Q    Q    Q       Q.     E  Q       Q    Q    E.  S
--3-------5--7-----|--5----2---------|---------0--2----|--3----5----7---2-|
-----------------8-|------------3----|--3--------------|------------------|
-------------------|-----------------|-----------------|------------------|
-------0-----------|-------0----4----|--0--------------|--2---------------|
--2----------7-----|--0--------------|-----------------|------------------|
-------------------|-----------------|-----------------|------------------|

  Q    E  E  Q       Q     Q    Q       Q.     E  Q       Q    E  E  Q
--5----0--3--5----|--0----10----9----|-----------------|------------------|
------------------|------------------|--0--------------|-------------1----|
--2---------------|------------------|--0------2--0----|--2----0-----0----|
------------------|------------------|--0--------------|--2-------4-------|
------------------|------------------|--2--------------|------------------|
------------------|------------------|--3--------------|------------------|

  Q    Q    Q       H.              Q.     E  Q       Q    Q    Q
-----------------|---------------|-----------------|------------0----|
------------0----|---------------|------------0----|--3--------------|
--2--------------|--0------------|--0------2-------|--2--------------|
--4----2----0----|--0------------|--0--------------|-------4----0----|
-----------------|--2------------|--2--------------|-----------------|
-----------------|--3------------|--3--------------|-----------------|

  H        Q       H.              Q.     E  Q       Q    Q    Q
----------------|--2------------|--3------5--7----|--5----3----2----|
--0--------4----|---------------|-----------------|-----------------|
----------------|---------------|-----------------|-------2---------|
--2-------------|--4------------|--0--------------|--4---------0----|
----------------|---------------|-----------------|-----------------|
----------------|---------------|--3--------------|-----------------|

  Q    E  E  E  E     H        Q       Q.     E  E.  S    Q    Q    Q
--0-------2--3--5--|--3-------------|--0------3--3---3-|--2----3----5----|
-------------------|-----------3----|--1---------------|--7----5----3----|
-------------------|----------------|------------------|-----------------|
-------2-----------|----------------|------------------|-----------------|
--2----------2-----|--2-------------|------------------|-----------------|
-------------------|--3-------------|------------------|-----------------|

  H        E  S S    Q    E  E  E  E     Q    E  E  Q       Q    Q    Q
--0--------0--2-3-|--5----------2--5--|--7----5--7--3----|-----------------|
------------------|----------3--------|------------------|--3---------3----|
-----------0------|-------2-----------|------------------|-----------------|
------------------|--4----------------|------------------|------------0----|
------------------|-------------------|--2---------------|-------2---------|
------------------|--2----------------|--3---------------|--3--------------|

  Q    Q    Q       Q    Q    Q       Q    E  E  Q       Q    Q    Q
------------6----|--0---------5----|--7----5--7--5----|--3---------5----|
--4--------------|--2--------------|------------------|------------0----|
--3--------------|-------2---------|------------------|-----------------|
-------1---------|------------2----|-------------0----|--0--------------|
------------1----|-----------------|------------------|-----------------|
-----------------|-----------------|--7----7----------|-----------------|

  Q    Q    Q       Q    E.  S Q    Q    E.     Q    E  E  Q
--6----3---------|--1----4---7-7----8----9---|--7----5--7--3----|
--4---------4----|--2------------------------|------------------|
-------3----0----|---------------------------|------------------|
-----------------|-------2-------------------|------------------|
-----------------|-------------4-------------|------------------|
-----------------|---------------------------|--7---------------|

  Q    Q    Q       Q    Q    Q       Q    Q    Q       Q    E  E  Q
-----------------|------------6----|--0---------5----|--7----5--7--5----|
--3---------3----|--4--------------|--2--------------|------------------|
-----------------|--3--------------|-------2---------|------------------|
------------0----|-------1---------|------------2----|-------------0----|
-------2---------|-----------------|-----------------|-------2----------|
--3--------------|------------6----|-----------------|--3---------------|

  Q    Q    Q       Q    Q    Q       Q    E.  S Q    Q    E.
--3---------5----|--6----3---------|--1----4---7-7----8----9---|
------------0----|--4---------4----|--2------------------------|
-----------------|-------3----0----|---------------------------|
--0--------------|-----------------|-------2-------------------|
-----------------|-----------------|-------------4-------------|
-----------------|-----------------|---------------------------|

                                          3         3
  Q.     E  E  E     Q    E  S S  Q       Q    Q    E   Q       Q    Q    Q
--7------5--3--5--|----------2345------|--8------------10----|--8---------7----|
--0---------------|--3-----------------|---------------------|------------0----|
---------2--------|--------------------|------------0--------|-------0---------|
------------0-----|-------0------------|-------2-------------|-----------------|
------------------|--2-----------------|---------------------|--7--------------|
------------------|---------------3----|--8------------------|-----------------|

  Q.     E  Q       Q    Q    Q       Q    Q    E  E     Q    E  E  Q
--8------7--5----|--0---------5----|--3---------2--3--|--2---------------|
-----------------|-----------------|--3---------------|------------------|
--5--------------|------------2----|-------0----------|-------2----------|
---------7--2----|-------2---------|------------4-----|--4-------4-------|
--0--------------|--0--------------|------------------|------------------|
-----------------|-----------------|------------------|-------------2----|

  Q.     E  E  E     Q    E  T  T S Q       Q    Q     Q       Q    Q    Q
--7------5--3--5--|----------2s---5------|--8---------10----|--8---------7----|
--0---------------|--3-------------------|------------------|------------0----|
---------2--------|----------------------|-------------0----|-------0---------|
------------0-----|-------0--------------|------------------|-----------------|
------------------|--2-------------------|--8----7----------|--7--------------|
------------------|-----------------3----|------------------|-----------------|

  Q.     E  Q       Q    Q    Q       Q    Q    E  E     E  E  E  E  Q
--8------7--5----|--0---------5----|--3---------2--3--|--2--0-------------|
-----------------|-----------------|--3---------------|--------3----------|
--5--------------|------------2----|-------0----------|--------2----------|
---------7--2----|-------2---------|------------4-----|--4--------4-------|
--0--------------|--0--------------|------------------|-------------------|
-----------------|-----------------|------------------|--------------2----|

  Q.     E  Q       Q    E  S S Q       Q    E  E  Q       Q    E  S S Q
--0------3--5----|--7-----------5----|--3-------3--5----|--7----5------3----|
-----------------|-------------------|------------------|-------------------|
-----------------|----------0--------|------------------|--0-------0--------|
---------2--4----|-------4----4-2----|-------2-----4----|-------2----4-2----|
--2--------------|--7----------------|--2---------------|-------------------|
-----------------|-------------------|------------------|-------------------|

  Q    E  E  Q       Q    S S E  Q       H        E  E
----------0--3----|--7----5------3----|-----------------|
--1----------0----|-------------------|--1--------------|
--2---------------|-------0-2-0-------|-----------------|
-------2----------|--7-----------4----|-----------1--4--|
------------------|-------------------|--4--------------|
------------------|-------------------|-----------------|

  Q    E.  S Q    Q    E.     H        E  E     Q    E.  S Q    Q    E.
--2------------------------|--2--------------|--5------------------------|
--3------------------------|-----------------|-----------------------1---|
------------------0----2---|--------------1--|-------2---0-2----3--------|
--0----4---2-4-------------|--1--------4-----|--3------------------------|
---------------------------|-----------------|---------------------------|
---------------------------|-----------------|---------------------------|

  H        E  E     Q    E.  S Q    Q    E.      Q     Q     Q
--5--------------|--8------------------------|--12----12----12----|
--------------0--|-------------1----3----4---|--------------------|
-----------2-----|-------5---3---------------|--------------------|
--4--------------|--6------------------------|--------------------|
-----------------|---------------------------|--------------------|
-----------------|---------------------------|--------------------|

   E   S  S  Q    Q        E  S S Q    Q       Q    Q    Q
--12--11-12-11----9----|--11------7----4----|--7--------------|
-----------------------|---------------2----|--4----0---------|
---9---------9----9----|---9--8-9-8---------|------------1----|
-----------------------|--------------------|-----------------|
-----------------------|--------------------|-----------------|
-----------------------|--------------------|-----------------|

  Q    Q    Q       E  S S Q    Q       E  S S Q    Q       Q    Q    Q
--9----9----9----|--9--7-9-7----5----|--7------4----2----|--4--------------|
-----------------|--------------2----|-----0---0---------|--0--------------|
-----------------|--6------6---------|--6----6------2----|-------1---------|
-----------------|-------------------|-------------------|------------4----|
-----------------|-------------------|-------------------|-----------------|
-----------------|-------------------|-------------------|-----------------|

   Q     Q     Q        E   S  S  Q    Q        E  S S Q    Q
--12----12----12----|--12--11-12-11----9----|--11------7----4----|
--------------------|-----------------------|---------------2----|
--------------------|---9---------9----9----|---9--8-9-8---------|
--------------------|-----------------------|--------------------|
--------------------|-----------------------|--------------------|
--------------------|-----------------------|--------------------|

  Q    Q    Q       Q    E  E  Q       E  S S Q    Q       Q    Q    E  E
--7--------------|--9----9-----9----|--9--7-9-7----5----|--7----4----2-----|
--4----0---------|------------------|--0----------------|------------------|
------------1----|------------------|---------6---------|------------------|
-----------------|--7----------7----|--------------2----|--7---------0--2--|
-----------------|----------7-------|-------------------|------------------|
-----------------|------------------|-------------------|------------------|

   H        S  E.
--12--------7-12---||
------------8------||
-------------------||
-------------------||
-------------------||
--12---------------||

Duration Legend
---------------
W - whole
H - half
Q - quarter
E - 8th
S - 16th
T - 32nd
X - 64th
. - note dotted
|-n-|  - n-tuplets

1 comment on The Shire

can also be played with a

can also be played with a capo at the 7th fret without really having to change positions all up and down the neck like a crackhead...