Login or Register to remove this ad. | Advertise Here

Credits (Legend of Zelda: A Link to the Past) Guitar Tab

Submitted: Oct 08, 2008 by sirorion4000 (Last updated: Nov 14, 2009)

0
Download | Listen
Game: Legend of Zelda: A Link to the Past
Composer(s): Koji Kondo
Style: Arrangement, Fingerstyle
Series: Legend of Zelda

AutoScroll: Slow | Medium | Fast
Legend of zelda, A link to the past                    missing a part of it, will complete
music by koji kondo                                    it as soon as possible.
Song:the ending credits
standard tuning let ring as much as you can             @    
Tabbed by Me!!! sirorion4000 (identity is secret lol)      signs are repeat again
here it is                                              @   

E---0----------------0--------2----0------------------2----2----------------------------------------
B--------3-------3-------3----3---------3--------3---------3-----------------------------------------
G---2--------2-------2--------2----2--------2--------------2-----------------------------------------
D------------0----------------0-------------0--------------0--------------------------------------
A---------------------------------------------------------------------------------------------
E---3--------2-------3-------------3--------2------------------------------------------------------
|

E|--10---------8---3---------0------------3---0--------5--------5--------------------------------------
B|@-------8-------------0-------3--1--3-----------1----------3-----5---3-----3--1-----------------------
G|------9---9---------0---0---------------------0---0-----4----------------0--------------------------
D|---0-------------------------------------------------0-----------------0-----------------------
A|@--------------------------3----------------3------------------------2-------------------------
E|-----------------3------------------------------------------------------------3---------------
|

E--------0-----0-------0-3---10---------8---3---------0---------3--0--------5-----5--------------------
B--0--1------1-----3---------------8-------------0-------3-1-3---------1--------3----------------------
G----------0-------2-------------9---9---------0---0-----------------0---0----4----------------------
D------------------0----------0---------------------------------------------0------------------
A--------3--------------------------------------------3------------3---------------------------
E------------------2------------------------3-------------------------------------------------
|

E------------------------0------0-----------5------5--8--7--8--12--10--8--7--5--8--10--7----------------------
B--5--3------3--1--0--1-------1----3-------------3------------------8---------------------------------
G----------0----------------0----------2-------4--------------------9----------------------------
D--------0---------------------------0---0--0---------0-------------0-----------------------------
A-----2------------------3--------------------------------------------------------------------
E---------------3------------------2----------------------------------------------------------
|

E--7--8--------7--10-------7--8---------7-----------3--5---------3--5-----------------------------------
B---------5------------8-----------5-------8----------------------------------------------------
G-------5---5--------9---9-------5---5---------5------------2------------2---------------------------
D------------------0-------------------------5---5--------2---2--------2---2-----------------------
A-----7-----------------------7------------7-----------0------------0----------------------------
E-------------------------------------------------------------------------------------------
|

E--3----1---0-------0--0---1--------0--3---10--------8---3---------0---------3---0-------------------------
B-------------------------------3---------------8-------------0-------3-1-3------------1-----------
G-----0---0-------2----2--------2-------------9---9---------0---0--------------------0---0-------------
D-------------------------------0-----------0-------------------------------------------------
A------------------------------------------------------------------3-------------3------------
E--3-----------3-------3--------2------------------------3---------------------------------------
|

E--5------5-------------------------0------0-----------------|-----------------------------------
B-------3-----5--3-----3--1--0--1--------1------3---1------@-|-----------------------------------------
G-----4--------------0-----------------0--------2---0--------|------------------------------------
D--0---------------0----------------------------0---2--------|-----------------------------------
A----------------2------------------3---------------3------@-|----------------------------------
E-------------------------3---------------------2------------|---------------------------------
|