Login or Register to remove this ad. | Advertise Here

Credits (Legend of Zelda: A Link to the Past) Guitar Tab

Submitted: Aug 12, 2008 by hslesperance (Last updated: Mar 31, 2014)

4
Average: 4 (1 vote)
Download | Listen
Game: Legend of Zelda: A Link to the Past
Composer(s): Koji Kondo
Style: Transcription
Series: Legend of Zelda

AutoScroll: Slow | Medium | Fast
Credits
The Legend of Zelda: A Link to the Past
Composed by Koji Kondo
Tabbed by hslesperance
8/10/08

Tempo= 68

e-------------------------------------------------------------------------
B-------------------------------------------------------------------------
G--0----2----0----2-------------------------------------------------------
D--2----3----2----3----0---------0----2----0--------0---2-2---------------
A-------------------------3----3----3---------3---3-----------------------
E---------------------------3-------------------3-------------------------

e-------------------------------------------------------------------------
B--3---1----------------------------------------3--1----------------------
G--------0----------------2---------------------------0-------------------
D----------2-0---0--2-2------2-0--------2--0-0--------------2-0---0-------
A--------------3-----------------3-2-3--------------------------3---------
E-------------------------------------------------------------------------

e-----------------------0-------------------------------------------------
B---------------0-1-0-1----3-3--0-1---0-3--0-1--0-------------------------
G--0-----2----2-----------------------------------0--0-2--2---2-0---------
D----2---3---2----------------------------------------------------3-------
A-------------------------------------------------------3-----------------
E-------------------------------------------------------------------------

e----------------------------------0--------------------------------------
B--------0-1--0-3--0-1----3----0-1----3-3--1-0----1--0-0--3--1------------
G-----------------------2---2-------------------2--------------0----------
D--2-0-0----------------------------------------------------------2-0-----
A---------------------------------------------------------------------3---
E-------------------------------------------------------------------------

e-------------------------------------------------------------------------
B-------------------------------------------------------------------------
G-----------2-----------------------0-------------0-----------------------
D--0--2-2------2-0-------2--0-0---0-1--3---0-2-3--0--3--3--2--------------
A------------------3-2-3--------3--------3-----------------3--------------
E-------------------------------------------------------------------------

e-------------------------------------------------------------------------
B---------------------------------1----1-1--------------------------------
G--------------------0----0-0-1-3----------3-1--3-1-0---0---------0-1-----
D------------0-2-3--------------------------------------------3-3---------
A--3-----3-3--------------------------------------------1-----------------
E-----3-------------------------------------------------------------------

e-------------------------------------------------------------------------
B-------------------------------------------------------------------------
G--0-----------0---------------------2---0--------------------------------
D----3--1-1-3---------3--1-0-0-2-4----------------------------------------
A------------------------------------3---2--2-2-2--2-2-2--2-2-2--2--3-----
E-------------------------------------------3-3-3--3-3-3--3-3-3--3-----3--

e-------------------------------------------------------------------------
B------------------------1-----4---3--0----------1---0--------------1--0--
G------------0---0-0-1-3------------------0--1----------0----0---1--------
D------0-2-3-------------1-----4---3--0----------1---0--------------1--0--
A--3-3------------------------------------2--3----------2----2---3--------
E-------------------------------------------------------------------------

e-------------------------------------------------------------------------
B-------------------------------------------------------------------------
G--0------------1--0--------------------2---0-----------------------------
D-------2---3----------1-------0-0-2-4------------------------------------
A--2------------4--3--------3-----------3---2-----------------------------
E-----------4----------3----3-----------------3-3-3--3-3-3--3-3-3--3------

e---------------0-1-3---3-3-4-6---8--8-8-6-4-6-4-3---3--1---1-3-4---3-1---
B--1------1-1-3-----6-------------4-----------------------------6---------
G-----0-------------3----------------------------3------------------------
D--2--2-------------------------------------------------------------------
A-------------------------------------------------------------------------
E-------------------------------------------------------------------------

e------1--3--1-----------2----5--3----------------------------------------
B--4-4----5----4--3-3-5--3------------------------------------------------
G-----------------------------5--0--0-0-0--0-0-0--0-0-0--0----------------
D--------------------------------------------------------------------0-2--
A----------------------------------------------------------3-----3-3------
E------------------------------------------------------------3------------

e---------------0-1-3-----------------------------0-1-0-----1-----0-------
B----1----1-1-3--------------------1--------1-1-3-----1-----1-----1-------
G----0--0--------------------------0----0----------------0-----0--0-------
D--3-------------------------0-2-3----------------------------------------
A-------------------3----3-3----------------------------------------------
E---------------------3---------------------------------------------------