Login or Register to remove this ad. | Advertise Here

New Continent (Final Fantasy VI) Bass Tab

Submitted: Mar 26, 2009 by auriplane (Last updated: Mar 29, 2009)

0
Download | Listen
Game: Final Fantasy VI
Composer(s): Nobuo Uematsu
Style: Transcription
Series: Final Fantasy

AutoScroll: Slow | Medium | Fast
                 Final Fantasy VI - New Continent BASS TAB
                           Song by Nobuo Uematsu

                  Tabbed by auriplane (crystal@panix.com)
                              On Mar 26, 2009

Four-string bass, standard tuning.

G |------------------------|------------------------|
D |------------------------|------------------------| x18
A |10-10-10-10-------------|10-10-------------------|
E |------------9-----------|------9-----------------|

G |------------------------|------------------------|
D |------------------------|------------------------|
A |10-10-10-10-------------|10-10-------------10-10-|
E |------------9-----------|------9-----------------|

G |------------------------|------------|
D |------------------------|------------|
A |---------10----------10-|---10-------|
E |9-----------9-----------|9-----9-----|

G |------------------------|------------------------|
D |------------------------|------------------------|
A |------------9-----------|------9-----------------|
E |8--8--8--8--------------|8--8--------------8--8--|

G |------------------------|------------------------|
D |------------------------|------------------------|
A |9-----------9-----------|9-----9-----------------|
E |---------8-----------8--|---8--------------------|

G |------------------------|------------------------|
D |------------------------|------------------------|
A |11----11----11----11----|11----11----11----11----|
E |------------------------|------------------------|

G |13----------13----------|------------------------|
D |------------------------|------------------------|
A |------11----------11----|11----11----11----11----|
E |------------------------|------------------------|

G |------------------------|------------------------|
D |------------------------|------------------------|
A |11----11----11----11----|11----11----11----11----|
E |------------------------|------------------------|

G |13----------13----------|------------------------|------------|
D |------------------------|------------------------|------------|
A |------11----------11----|11----11----11----11----|------------|
E |------------------------|------------------------|------------|