Login or Register to remove this ad. | Advertise Here

Fierce Battle (Final Fantasy VI) Guitar Tab

Submitted: Jun 10, 2008 by ronito (Last updated: Oct 18, 2009)

3.5
Average: 3.5 (2 votes)
Download | Listen
Game: Final Fantasy VI
Composer(s): Nobuo Uematsu
Style: Fingerstyle, Transcription
Series: Final Fantasy

AutoScroll: Slow | Medium | Fast
     E  S. T S. T S. T S. T S. T S. T S. T  
E||----------1---------0---------1---------|
B||--5--4----3----4----1----4----3----4----|
G||--5--4---------4---------4---------4----|
D||----------------------------------------|
A||----------------------------------------|
E||----------------------------------------|


  E  S. T S. T S. T S. T S. T S. T S. T  
--0-------1---------0---------1---------|
--1--4----3----4----1----4----3----4----|
-----4---------4---------4---------4----|
----------------------------------------|
----------------------------------------|
----------------------------------------|


  E  S. T S. T S. T S. T S. T S. T S. T  
--0-------1---------0---------1---------|
--1--4----3----4----1----4----3----4----|
-----4---------4---------4---------4----|
----------------------------------------|
----------------------------------------|
----------------------------------------|


  E  S. T S. T S. T S. T S. T S. T S. T  
--0-------1---------0---------1---------|
--1--4----3----4----1----4----3----4----|
-----4---------4---------4---------4----|
----------------------------------------|
----------------------------------------|
----------------------------------------|


  E  S. T S. T S. T S. T S. T S. T S. T  
----------0----3----1-------------------|
-----1-------------------3----4----3----|
--2-------------------------------------|
----------------------------------------|
--0-------------------------------------|
----------------------------------------|


  E  S. T S. T S. T S. T S. T S. T S. T    E  S S S. T S. E  T S. T S. T S. T  
--1--4----9----8----6----4----2----1----|--0----------------------------------|
----------------------------------------|-----4-3-1----3------------4---------|
----------------------------------------|--------------2-------2----5----2----|
----------------------------------------|---------------------------5---------|
----------------------------------------|-------------------------------------|
----------------------------------------|-------------------------------------|


  E  S. T S. T S. E  T S. T E  S. T    E  S S S. T S. E  T S. T S. T S. T  
--3------------2------------0-------|--0----------------------------------|
--5------------4------------1-------|-----4-3-1----3------------4---------|
-----2----0----2-------2----0--2----|--------------2-------2----5----2----|
------------------------------------|---------------------------5---------|
------------------------------------|-------------------------------------|
------------------------------------|-------------------------------------|


  E  S. T S. T S. E  T S. T E  S. T    E  S S S. T S. E  T S. T S. T S. T  
--3------------2------------0-------|--0----------------------------------|
--5------------4------------1-------|-----4-3-1----3------------4---------|
-----2----0----2-------2----0--2----|--------------2-------2----5----2----|
------------------------------------|---------------------------5---------|
------------------------------------|-------------------------------------|
------------------------------------|-------------------------------------|


  E  S. T S. T S. E  T S. T E  S. T    E  S S S. T S. E  T S. T S. T S. T  
--3------------2------------0-------|--0----------------------------------|
--5------------4------------1-------|-----4-3-1----3------------4---------|
-----2----0----2-------2----0--2----|--------------2-------2----5----2----|
------------------------------------|---------------------------5---------|
------------------------------------|-------------------------------------|
------------------------------------|-------------------------------------|


  E  S. T S. T S. E  T S. T E  S. T    S S S. T S. T E.  T T T T S S. T S. T  
--3------------2------------0-------|----------------------------------------|
--5------------4------------1-------|-----------0----1---L---0---1-0---------|
-----2----0----2-------2----0--2----|--1-2-3----------------------------3----|
------------------------------------|----------------------------------------|
------------------------------------|----------------------------------------|
------------------------------------|----------------------------------------|


  S S S. T S. T E.  T T S. T S. T S. T    Q    S. T S. T S. T S. T S T T S. T  
---------------------------------------|--------------------------------------|
---------------------------------------|--------------------------------------|
-----------2---------------------------|--------------------------------------|
--1-2-1---------0---L------------------|----------------------0------0--------|
------------------------3----2---------|--0----3----2----0---------3-----2----|
----------------------------------4----|--------------------------------------|


  E  S. T S. T S. T S. T Q    S. T    S S S. T S. T E.  T T T T S S. T S. T  
-----------------------------------|----------------------------------------|
-----------------------------------|-----------0----1---L---0---1-0---------|
-----------------------------------|--1-2-3----------------------------3----|
--2--0---------4----1----2----L----|----------------------------------------|
----------3------------------------|----------------------------------------|
-----------------------------------|----------------------------------------|


  S S S. T S. T E.  T T S. T S. T S. T    Q    E.  T T E.  T T S. T S. T  
---------------------------------------|---------------------------------|
---------------------------------------|---------------------------------|
-----------2---------------------------|---------------------------------|
--1-2-1---------0---L------------------|-------0---L---------------------|
------------------------3----2---------|--0------------3---L---2---------|
----------------------------------4----|----------------------------4----|


  H.           E.  T T    S S S. T S. T E.  T T T T S S. T S. T  
-----------------------|----------------------------------------|
-----------------------|-----------0----1---L---0---1-0---------|
-----------------------|--1-2-3----------------------------3----|
-----------------------|----------------------------------------|
--0------------L---L---|----------------------------------------|
-----------------------|----------------------------------------|


  S S S. T S. T E.  T T S. T S. T S. T    Q    S. T S. T S. T S. T S T T S. T  
---------------------------------------|--------------------------------------|
---------------------------------------|--------------------------------------|
-----------2---------------------------|--------------------------------------|
--1-2-1---------0---L------------------|----------------------0------0--------|
------------------------3----2---------|--0----3----2----0---------3-----2----|
----------------------------------4----|--------------------------------------|


  E  S. T S. T S. T S. T Q    S. T    S S S. T S. T E.  T T T T S S. T S. T  
-----------------------------------|----------------------------------------|
-----------------------------------|-----------0----1---L---0---1-0---------|
-----------------------------------|--1-2-3----------------------------3----|
--2--0---------4----1----2----L----|----------------------------------------|
----------3------------------------|----------------------------------------|
-----------------------------------|----------------------------------------|


  S S S. T S. T E.  T T S. T S. T S. T    Q    E.  T T E.  T T E.  T T  
---------------------------------------|-------------------------------|
---------------------------------------|-------------------------------|
-----------2---------------------------|-----------------------0---L---|
--1-2-1---------0---L------------------|-------2---L---0---L-----------|
------------------------3----2---------|--0----------------------------|
----------------------------------4----|-------------------------------|


  H.           E.  T T    E  S. T S. T E.  T T S. T S. T S. T  
-----------------------|--------------------------------------|
-----------------------|----------0----1---L---0--------------|
--2------------L---L---|--2--3----------------------3----2----|
-----------------------|--------------------------------------|
-----------------------|--------------------------------------|
-----------------------|--------------------------------------|


  E  S. T S. T E.  T T S. T S. T S. T    Q    S. T S. T S. T E.  T T E   
--------------------------------------|------------------------------0--|
----------3----0---L-------------0----|--1---------0----1----4---L------|
--0--------------------0----2---------|-------2-------------------------|
-----0--------------------------------|---------------------------------|
--------------------------------------|---------------------------------|
--------------------------------------|---------------------------------|


  E  S. T S. T S. T S. T E.  T T S. T    E  S. T S. T E.  T T S. T S. T S. T  
--L--0--------------0----2---L---2----|--------------------------------------|
----------1----3----------------------|----------0----1---L---0--------------|
--------------------------------------|--2--3----------------------3----2----|
--------------------------------------|--------------------------------------|
--------------------------------------|--------------------------------------|
--------------------------------------|--------------------------------------|


  E  S. T S. T E.  T T S. T S. T S. T    Q    S. T S. T S. T S. T S. T E   
--------------------------------------|--------------------------------1--|
----------3----0---L-------------0----|--1--------------1----3----4-------|
--0--------------------0----2---------|-------1----3----------------------|
-----0--------------------------------|-----------------------------------|
--------------------------------------|-----------------------------------|
--------------------------------------|-----------------------------------|


  E  S. T S. T S. T S. T S. T S. T S. T    H.           E.  T T   
--L-------4----2----1-------------------|--1------------L---L---||
-----4-------------------4----2----4----|-----------------------||
----------------------------------------|-----------------------||
----------------------------------------|-----------------------||
----------------------------------------|-----------------------||
----------------------------------------|-----------------------||


Duration Legend
---------------
W - whole
H - half
Q - quarter
E - 8th
S - 16th
T - 32nd
X - 64th
. - note dotted
|-n-| - n-tuplets

Tablature Legend
----------------
L - tied note
x - dead note
g - grace note
(n) - ghost note
> - accentuded note
NH - natural harmonic
AH - artificial harmonic
TH - tapped harmonic
SH - semi harmonic
PH - pitch harmonic
h - hammer on
p - pull off
b - bend
br - bendRelease
pb - preBend
pbr - preBendRelease
brb - bendReleaseBend
\n/ - tremolo bar dip
\n - tremolo bar dive
-/n - tremolo bar Release up
/n\ - tremolo bar inverted dip
/n - tremolo bar return
-\n - tremolo bar Release down
S - shift slide
s - legato slide
/ - slide into from below or out of upwards
\ - slide into from above or out of downwards
~ - vibrato
W - wide vibrato
tr - trill
TP - tremolo picking
T - tapping
S - slap
P - pop
< - fade in
^ - brush up
v - brush down

1 comment on Fierce Battle

Aw, I feel like you did this

Aw, I feel like you did this for me ^_~
Youre my favorite tabber, and I've been wanting this song to get done for so long by someone more talented than me!