Login or Register to remove this ad. | Advertise Here

Into the Darkness (Final Fantasy IV) Guitar Tab

Submitted: Sep 06, 2008 by TheDoomOfAllFires (Last updated: Oct 31, 2009)

5
Average: 5 (2 votes)
Download | Listen
Game: Final Fantasy IV
Composer(s): Nobuo Uematsu
Style: Arrangement, Fingerstyle
Series: Final Fantasy

AutoScroll: Slow | Medium | Fast
Final Fantasy IV - Into The Darkness
Arranged & tabbed by TheDoomOfAllFires, 08/31/2008

Bpm = 65
Standard tuning


                                                     ^       
      E  E  E  E  E  E     E  E  E  Q.        Q.     Q.      
E||------------2--1-----|--0---------------|----------------|
B||------------------2--|-----3--0---------|---------2------|
G||*-----1--2-----------|--4--------0------|---------2------|
D||*--4--------4--3-----|--------2---------|--4------4------|
A||------------------4--|------------------|---------4------|
E||---2-----------------|--3--------3------|--2------2------|


                                                                      ^       
  E.  S  S S Q.        E  E  E  E  E  E     E  E  E  Q.        Q.     Q.      
--------------------|-----------2--1-----|--0---------------|----------------|
-------------0------|-----------------2--|-----3--0---------|---------2------|
-----------0--------|-----1--2-----------|--4--------0------|---------2------|
--2---1h-2----------|--4--------4--3-----|--------2---------|--4------4------|
--------------------|-----------------4--|------------------|---------4------|
--0----------3------|--2-----------------|--3--------3------|--2------2------|


         ^                                                                 
  Q.     Q.        E  E  E  E  E  E     H.              E  E  E  E  E  E   
----------------|-----------0--------|---------------|-----------0-----0--|
---------3------|-----0--2-----3--0--|---------------|-----0--2-----3-----|
--0-------------|--2--------2--------|--0------------|--2-----------------|
---------5------|-----------------4--|---------------|-----------2--------|
---------5------|--0-----------------|---------------|--0-----------------|
--3------3------|--------------------|--0------------|-----------0--------|


                                       ^                              
  Q.     Q.        Q    E  E  E  E     H.              Q.     Q.      
--3-------------|--3----3--5--3--5--|--6------------|--3-------------|
---------4------|-------------------|--8------------|---------4------|
---------3------|-------------------|--0------------|---------3------|
--1-------------|--1-------3-----0--|---------------|--1-------------|
----------------|-------------------|---------------|----------------|
----------------|-------------------|---------------|----------------|


  Q    E  E  E  E     H.                H.                  
--3----3--5--3--5--|--7-------------||--L------------|----||
-------------------|----------------||---------------|----||
-------------------|---------------*||---------------|----||
--1-------3-----0--|---------------*||---------------|----||
-------------------|----------------||---------------|----||
-------------------|--3-------------||--L------------|----||

3 comments on Into the Darkness

This is pretty sweet.

This is pretty sweet. Somebody should change how it's labeled, though. It says FFVI on the site and FFIV on the tab (the tab being the correct one).

Ah, you're right. Good

Ah, you're right. Good catch.

first track i heard by nobuo

5

first track i heard by nobuo that really snared me