Login or Register to remove this ad. | Advertise Here

Illusionary World (Final Fantasy IV) Bass Tab

Submitted: Oct 04, 2008 by auriplane

5
Average: 5 (1 vote)
Download | Listen
Game: Final Fantasy IV
Composer(s): Nobuo Uematsu
Style: Transcription
Series: Final Fantasy

AutoScroll: Slow | Medium | Fast
           Final Fantasy IV - Illusionary World BASS TAB
                       Song by Nobuo Uematsu

               Tabbed by auriplane (crystal@panix.com)


Four-string bass, standard tuning.

    Repeat 2x:

G |------------|10----------|------------|------------|
D |---------10-|---------10-|------------|------------|
A |8-----------|------------|---------9--|------------|
E |------------|------------|8-----------|8-----------|
                                                
    No repeat:
                                                
G |------------|------------|------------|------------|
D |7--6--------|------------|7--6--------|------------|
A |------10-9--|8-----7-----|------10-9--|8-----------|
E |------------|------------|------------|------------|

G |------------|------------|
D |9-----------|------------|
A |------------|7-----------|
E |------------|------------|