Login or Register to remove this ad. | Advertise Here

Cry in Sorrow (intro) (Final Fantasy IV) Bass/Guitar Tab

Submitted: Feb 01, 2009 by Juja (Last updated: Apr 05, 2010)

0
Download | Listen
Game: Final Fantasy IV
Composer(s): Nobuo Uematsu
Style: 2 or more instruments, Fingerstyle, Transcription
Series: Final Fantasy

AutoScroll: Slow | Medium | Fast
Game: Final Fantasy IV
Song: Cry in Sorrow (intro)
Composed by: Nobuo Uematsu
Tabbed by: Not So Great Juja (Paul Horses)

Key:
~ = vibrato
p = pull-off
h = hammer-on
/ = slide
pm = palm-mute
tr = tremolo picking

Any questions or comments -
please, E-mail me at: TheDeviLisDavidHerbert@gmail.com


Just so nobody gets confused - the tob part would be guitar 1,
the middle is guitar 2, and the bottom is bass.


 e|-------13------------------------13------------|
 B|-----------16--14--13-16-14------------16-14---|
 G|-----------------------------15----------------|
 D|-----------------------------------------------|
 A|-----------------------------------------------|
 E|-----------------------------------------------|
  |                                               |
 e|-------6-8-----6----------4--------------------|
 B|----6---------------------7-6-----------6-9----|
 G|-6-------------8----------------------6--------|
 D|-8-------------6--------------------8----------|
 A|----------------------------------9------------|
 E|-----------------------------------------------|
  |                                               |
 G|-----------------------------------------------|
 D|-8-------------6-------------------------------|
 A|----------------------------------9------------|
 E|-----------------------------------------------|