Login or Register to remove this ad. | Advertise Here

Chocobo (Final Fantasy IV) Bass Tab

Submitted: Mar 04, 2009 by auriplane (Last updated: Mar 04, 2009)

0
Download | Listen
Game: Final Fantasy IV
Composer(s): Nobuo Uematsu
Style: Transcription
Series: Final Fantasy

This song is also called Chocobo Chocobo

AutoScroll: Slow | Medium | Fast
                        Final Fantasy IV - Chocobo BASS TAB
                                Song by Nobuo Uematsu

                      Tabbed by auriplane (crystal@panix.com)
                                   On Mar 4, 2009


        Part A        Repeat 2x

G |------------------------|------------------------|
D |------------------------|------8--9--7-----------|
A |10----------------8-----|10-10----------------8--|
E |---------------10----10-|------------------10----|

G |------------------------|---------------10----10-|
D |------------------------|------8--9--7-----------|
A |10----------------8-----|10-10-------------8-----|
E |---------------10----10-|------------------------|

        Part B

G |------------------------|---12-11-------9--7-----|
D |10----------------------|------------------------|
A |---------------------9--|10----------7-----------|
E |---------8--10----------|------------------------|

G |------------------------|------------------------|
D |10----------------------|------7--8--9-----------|
A |---------------------10-|---10----------10-7-----|
E |---------8--10----------|---------------------10-|

G |------------------------|---12-11-------9--7-----|
D |10----------------------|------------------------|
A |---------------------9--|10----------7-----------|
E |---------8--10----------|------------------------|

G |------------------------|7-----------------7-----|
D |------------------------|---10----9--7-----------|
A |8--8--------8--8--------|------------------------|
E |------------------------|------------------------|