Login or Register to remove this ad. | Advertise Here

The Dragon Spreads Its Wings (Final Fantasy V) Guitar Tab

Submitted: Oct 03, 2007 by Kabukibear (Last updated: Sep 19, 2009)

5
Average: 5 (6 votes)
Download | Listen
Game: Final Fantasy V
Composer(s): Nobuo Uematsu
Style: Arrangement, Fingerstyle, Natural harmonics
Series: Final Fantasy

AutoScroll: Slow | Medium | Fast
The Dragon Spreads Its Wings
~Final Fantasy V~
Composed By: Nobuo Uematsu
Arranged By: Justin Lincoln

Drop D Tuning
bpm=150

      E  E  E  E  E  E  E  E     E  E  E  Q    E  E  E
E||---------------------------|-------------------------|
B||---------------------------|-------------------------|
G||*--------------3--------2--|--L----------------------|
D||*--3-----3--------------3--|--L--3-------------3-----|
A||------3--------------3--3--|--L-----3-------3-----3--|
D||---3--------3-----3-----3--|--L--------3-------------|

  E  E  E  E  E  E  E  E     E  E  E  E  E  E  E  E
--------------------------|--------------------------|
--------------------------|--------------3--------3--|
--------------3--2-----0--|--------------------2-----|
--------3-----------------|-----2--3--------3--------|
-----0-----0--------------|--0-----------------------|
--0-----------0-----0-----|-----------0--------------|

  E  E  E  E  E  E  E  E     E  E  E  Q    E  E  E     E  E  E  Q    E  E  E
--------------------0-----|-------------------------|-------------------------|
--1--------0-----0-----0--|--1--0----------------0--|--1-------------------1--|
--------2-----------------|--------2----------2-----|--------0----------0-----|
-----2--------2-----------|-----------2-------------|-----2----------2--------|
--0-----------------------|--0-------------0--------|--3--------3-------------|
--------------------------|-------------------------|-------------------------|

  E  E  E  E  E  E  E  E       E  E  E  E  E  E  E  E
-----------0---------------||--------------------------|
--3-----------3--1---------||--------------------------|
--------0-----------3--2--*||--3-----3--2--------3-----|
-----2--------------------*||-----0--------0-----------|
--3------------------------||--------------------------|
---------------------------||--5--------------5-----3--|

                                                               ^
  E  E  E  Q    E  E  E     E  E  E  Q    E  E  E     E  E  E  Q    E  E  E
-------------------------|-------------------------|-----------0-------------|
-------------------------|-------------------------|--3--------3-------------|
--2--3--2--0-------------|-----3-----2----------3--|--------0----------0--2--|
----------------0-----0--|-----0-----0-------------|-----2----------2--------|
-------------------------|----------------0--1-----|--3--------3-------------|
--1----------------3-----|--5-----5----------------|-------------------------|

  E  E  E  E  E  E  E  E     E  E  E  Q    E  E  E     E  E  E  Q    E  E  E
--------------------------|-------------------------|-------------------------|
--------------------------|-------------------------|-------------------------|
--3-----3--2--------3-----|--2--3--2--0-------------|-----3-----2----------3--|
-----0--------0-----------|----------------0-----0--|-----0-----0-------------|
--------------------------|-------------------------|----------------0--1-----|
--5--------------5-----3--|--1----------------3-----|--5-----5----------------|

                  Da Capo
  E  E  E  E    Q    Q         E  E  E  E  E  E  E  E
-----------3--3g5----3----||---2--------2--------------|
--3--------3--3g5----3----||---------3-----------3-----|
--------0-----------------||*-----2-----------2-----2--|
-----2--------------------||*--------------------------|
--3-----------------------||---------------------------|
--------------------------||---0-----------0-----------|

  E  E  E  E  E  E  E  E     E  E  E  E  E  E  E  E
--4--------4--------------|--7--------7--------------|
--------5-----------5-----|--------8-----------8-----|
-----4-----------4-----4--|-----7-----------7-----7--|
--------------------------|--------------------------|
--------------------------|--------------------------|
--0-----------0-----------|--0-----------0-----------|

                               ^
  E  E  E  E  E  E  E  E       H        Q    Q         E  E  E  E  E  E  E  E
--5--------5---------------||--5------------------||---------------------------|
--------7-----7------------||--7------------------||---------------------------|
-----7-----------7-----7--*||--7------------------||*--------------3--------2--|
--------------------------*||---------------------||*--3-----3--------------3--|
---------------------------||---------------------||------3--------------3--3--|
--0-----------------0------||--0--------0----2----||---3--------3-----3-----3--|

  E  E  E  Q    E  E  E     E  E  E  E  E  E  E  E     E  E  E  E  E  E  E  E
-------------------------|--------------------------|--------------------------|
-------------------------|--------------------------|--------------3--------3--|
--L----------------------|--------------3--2-----0--|--------------------2-----|
--L--3-------------3-----|--------3-----------------|-----2--3--------3--------|
--L-----3-------3-----3--|-----0-----0--------------|--0-----------------------|
--L--------3-------------|--0-----------0-----0-----|-----------0--------------|

  E  E  E  E  E  E  E  E     E  E  E  Q    E  E  E     E  E  E  Q    E  E  E
--------------------0-----|-------------------------|-------------------------|
--1--------0-----0-----0--|--1--0----------------0--|--1-------------------1--|
--------2-----------------|--------2----------2-----|--------0----------0-----|
-----2--------2-----------|-----------2-------------|-----2----------2--------|
--0-----------------------|--0-------------0--------|--3--------3-------------|
--------------------------|-------------------------|-------------------------|

  E  E  E  E  E  E  E  E       E  E  E  E  E  E  E  E
-----------0---------------||--------------------------|
--3-----------3--1---------||--------------------------|
--------0-----------3--2--*||--3-----3--2--------3-----|
-----2--------------------*||-----0--------0-----------|
--3------------------------||--------------------------|
---------------------------||--5--------------5-----3--|

                                                               ^
  E  E  E  Q    E  E  E     E  E  E  Q    E  E  E     E  E  E  Q    E  E  E
-------------------------|-------------------------|-----------0-------------|
-------------------------|-------------------------|--3--------3-------------|
--2--3--2--0-------------|-----3-----2----------3--|--------0----------0--2--|
----------------0-----0--|-----0-----0----------3--|-----2----------2--------|
-------------------------|----------------0--1-----|--3--------3-------------|
--1----------------3-----|--5-----5----------------|-------------------------|

  E  E  E  E  E  E  E  E     E  E  E  Q    E  E  E     E  E  E  Q    E  E  E
--------------------------|-------------------------|-------------------------|
--------------------------|-------------------------|-------------------------|
--3-----3--2--------3-----|--2--3--2--0-------------|-----3-----2----------3--|
-----0--------0-----------|----------------0-----0--|-----0-----0----------3--|
--------------------------|-------------------------|----------------0--1-----|
--5--------------5-----3--|--1----------------3-----|--5-----5----------------|

  E  E  E  E    Q    Q       E  E  E  E  E  E  E  E
-----------3--3g5----3----|--2--------2--------------|
--3--------3--3g5----3----|--------3-----------3-----|
--------0-----------------|-----2-----------2-----2--|
-----2--------------------|--------------------------|
--3-----------------------|--------------------------|
--------------------------|--0-----------0-----------|

  E  E  E  E  E  E  E  E     E  E  E  E  E  E  E  E
--4--------4--------------|--7--------7--------------|
--------5-----------5-----|--------8-----------8-----|
-----4-----------4-----4--|-----7-----------7-----7--|
--------------------------|--------------------------|
--------------------------|--------------------------|
--0-----------0-----------|--0-----------0-----------|

  E  E  E  E  E  E  E  E     E  E  E  E  E  E  E  E
--5--------5--------------|--2--------2--------------|
--------7-----7-----------|--------3-----------3-----|
-----7-----------7-----7--|-----2-----------2-----2--|
--------------------------|--------------------------|
--------------------------|--------------------------|
--0-----------------0-----|--0-----------0-----------|

                                                        ^          NH
  E  E  E  E  E  E  E  E     E  E  E  E  E  E  E  E     H          H
--4--------4--------------|--7--------7--------------|--5-------------------|
--------5-----------5-----|--------8-----------8-----|--7----------7--------|
-----4-----------4-----4--|-----7-----------7-----7--|--7----------7--------|
--------------------------|--------------------------|-------------7--------|
--------------------------|--------------------------|----------------------|
--0-----------0-----------|--0-----------0-----------|--0-------------------|

  ^
  W
--2----------------||
--3----------------||
--2----------------||
--0----------------||
--0----------------||
--0----------------||

Duration Legend
---------------
W - whole
H - half
Q - quarter
E - 8th
S - 16th
T - 32nd
X - 64th
. - note dotted
|-n-|  - n-tuplets

Tablature Legend
----------------
L - tied note
g - grace note
NH - natural harmonic
^ - brush up
Da Capo - Play from the beginning, including all repeats

4 comments on The Dragon Spreads Its Wings

Guys, give this one some

Guys, give this one some love, it's really a lot of fun to play, I promise!

alright I'll give it a go

alright I'll give it a go

I like it, though I never

I like it, though I never really played ff5 so I have no emotional connection to the song in the game.

Also the MIDI keeps stopping randomly.

Thank you

Thank you