Login or Register to remove this ad. | Advertise Here

Long Way to Go (Final Fantasy IV) Guitar Tab

Submitted: Feb 23, 2008 by dma83 (Last updated: Oct 04, 2009)

0
Download | Listen
Game: Final Fantasy IV
Composer(s): Nobuo Uematsu
Style: 2 or more instruments, Transcription
Series: Final Fantasy

AutoScroll: Slow | Medium | Fast
SNES - Final Fantasy II/IV - A Long Way to Go
Tabbed by Steve Havens, sabtallica@yahoo.com

Rhythm
|------------------------------------------|
|------------------------------------------|
|-0----0---------------0----0----2--2----2-|
|-2----2----4--4----4--2----2----4--4----4-|
|-----------5--5----5----------------------|
|------------------------------------------|

Lead - Comes in third time rhythm part is played
|---------7--10--------9--7------9--7--------|
|------8---------------------10--------------|
|-9------------------------------------------|
|--------------------------------------------|
|--------------------------------------------|
|--------------------------------------------|

|-----------10--14----12----10----12--14--------|
|-------12--------------------------------12----|
|-12--------------------------------------------|
|-----------------------------------------------|
|-----------------------------------------------|
|-----------------------------------------------|

|-----------------------------------10--14-----10--12---15p14------12-|
|-10--------10--12--------------12-----------------------------15-----|
|-----12------------11----12------------------------------------------|
|---------------------------------------------------------------------|
|---------------------------------------------------------------------|
|---------------------------------------------------------------------|