Login or Register to remove this ad. | Advertise Here

Golbez, Into the Darkness (Final Fantasy IV) Guitar Tab

Submitted: Feb 23, 2008 by dma83 (Last updated: Sep 11, 2009)

0
Download | Listen
Game: Final Fantasy IV
Composer(s): Nobuo Uematsu
Style: 2 or more instruments, Transcription
Series: Final Fantasy

AutoScroll: Slow | Medium | Fast
SNES - Final Fanstasy II/IV - Golbez, Clad In Darkness
Tabbed by Steve Havens, sabtallica@yahoo.com
This probably has mistakes in the fast parts.

2x
|--------------------------------------------------------------|
|-12------11------12------11------12---14---15------14------12-|
|-12------11------12------11------12---14---15------14------12-|
|--------------------------------------------------------------|
|--------------------------------------------------------------|
|--------------------------------------------------------------|
|                                                              |
|--------------------------------------------------------------|
|--------------------------------------------------------------|
|--------------------------------------------------------------|
|--------------------------------------------------------------|
|-14------13------14------13------14---16---17------16------14-|
|--------------------------------------------------------------|


2x
|-12------11------12------11------12---14---15------14------12-|
|-13------12------13------12------13---15---16------15------13-|
|--------------------------------------------------------------|
|--------------------------------------------------------------|
|--------------------------------------------------------------|
|--------------------------------------------------------------|
|                                                              |
|--------------------------------------------------------------|
|--------------------------------------------------------------|
|--------------------------------------------------------------|
|-14------13------14------13------14---16---17------16------14-|
|--------------------------------------------------------------|
|--------------------------------------------------------------|


|-12-11-12------------------------------------|
|----------12-13-12-13-12-10------------------|
|----------------------------11-12-11-9-8-9-8-|
|---------------------------------------------|
|---------------------------------------------|
|---------------------------------------------|
|                                             |
|---------------------------------------------|
|---------------------------------------------|
|---------------------------------------------|
|---------------------------------------------|
|-7-------------------------------------------|
|---------------------------------------------|


|---------------------------------------------|
|---------------------------------------------|
|-9-12-9-----------------------11---12--------|
|--------9-11-9-13-9-14-9-13-9----9-----------|
|---------------------------------------------|
|---------------------------------------------|
|                                             |
|---------------------------------------------|
|---------------------------------------------|
|---------------------------------------------|
|------------------------------------9--------|
|-(7)-------------------------------10--------|
|---------------------------------------------|


|-7-6-7---------7---7---7---7---7---7-----------------------------|
|-------7-8-7-8---5---4---3---4---5-----4---4---4---4---4---4---4-|
|-------------------------------------5---2---1---0---1---2---5---|
|-----------------------------------------------------------------|
|-----------------------------------------------------------------|
|-----------------------------------------------------------------|
|                                                                 |
|-----------------------------------------------------------------|
|-----------------------------------------------------------------|
|-----------------------------------------------------------------|
|-----------------------------------------------------------------|
|-----------------------------------------------------------------|
|-7---------------------------------------------------------------|


|-4------------------------------------------------------------|
|-----6-------6------------------------------------------------|
|---------7-------7---4---7---4-------4------------------------|
|---------------------------------6-------6---3---6---3---0----|
|--------------------------------------------------------------|
|--------------------------------------------------------------|
|                                                              |
|--------------------------------------------------------------|
|--------------------------------------------------------------|
|--------------------------------------------------------------|
|-3------------------------------------------------------------|
|-5------------------------------------------------------------|
|--------------------------------------------------------------|