Login or Register to remove this ad. | Advertise Here

Fabul (Final Fantasy IV) Guitar Tab

Submitted: Feb 23, 2008 by dma83 (Last updated: Sep 11, 2009)

0
Download | Listen
Game: Final Fantasy IV
Composer(s): Nobuo Uematsu
Style: Transcription
Series: Final Fantasy

AutoScroll: Slow | Medium | Fast
SNES - Final Fantasy II/IV - Fabul
Tabbed by Steve Havens, sabtallica@yahoo.com
The third and fourth bars may need some severe correcting.

|-12--------10------15--------13--------12--------|
|-12--------10------15--------13--------12--------|
|-14(16)----12(14)--17(19)----15(17)----14(16)----|
|-------------------------------------------------|
|-------------------------------------------------|
|-------------------------------------------------|

|-12----12--13--12----10----8----8--10--8----7----5----|
|-10----10--11--10-----8----6----6---8--6----5----3----|
|------------------------------------------------------|____
|------------------------------------------------------|    |
|------------------------------------------------------|    |
|------------------------------------------------------|    |
                                                           |
|-----------------------17p16h17---|                        |
|----------------------------------|                        |
|------------14p13h14--------------|_______________________2x
|-14p13h14-------------------------|                        |
|----------------------------------|                        |
|----------------------------------|                        |
                                                           |
|-22(24)-22(24)(22)-20-17-19-16-17------------------|       |
|---------------------------------------------------|       |
|------------------------------------9h10p9---------|_______|
|-------------------------------------------12-10-9-|
|---------------------------------------------------|
|---------------------------------------------------|

2x
|-------------13----17----20---20--22--20---19---17-----19--17----|
|-10----13----13----18--------------------------------------------|
|-10----14--------------------------------------------------------|
|-----------------------------------------------------------------|
|-----------------------------------------------------------------|
|-----------------------------------------------------------------|

1 comment on Fabul

The cool part goes like

The cool part goes like this

e |--------------------------|------------------------------|
B |--------------------------|------10--9--10-------13--12--|
G |-------------------/9--8--|9-----------------------------|
D |--------------------------|------------------------------|
A |--------------------------|------------------------------|
E |--------------------------|------------------------------|


e |----12--11h12p11-------------------|------------------------------------|
B |13--------------12--13--10--12--9--|10----------------------------------|
G |-----------------------------------|------9-10-9------------------------|
D |-----------------------------------|-------------12-10-9----------------|
A |-----------------------------------|---------------------12~-\----------|
E |-----------------------------------|------------------------------------|

That's just how I play it, of course :-D (The last note isn't in the song, actually.)