Login or Register to remove this ad. | Advertise Here

Cry in Sorrow (Final Fantasy IV) Bass Tab

Submitted: Oct 03, 2007 by Calebelijah (Last updated: Sep 20, 2009)

0
Download | Listen
Game: Final Fantasy IV
Composer(s): Nobuo Uematsu
Style: Transcription
Series: Final Fantasy

Click here for a video example.

AutoScroll: Slow | Medium | Fast
                                     Cry                                        

Track 3
     H        H           H        H           H        H
G||--------------------|--------------------|--------------------|
D||--------------------|--------------------|--------------------|
A||--1--------1--------|--1--------1--------|--1--------1--------|
E||--------------------|--------------------|--------------------|
B||--------------------|--------------------|--------------------|

  H        H           H        H           H        H
--------------------|--------------------|--------------------|
--------------------|--------------------|--------------------|
--1--------1--------|--1--------1--------|--1--------1--------|
--------------------|--------------------|--------------------|
--------------------|--------------------|--------------------|

  H        H           Q.     E  S Q    S E     H        H
--------------------|------------------------|--------------------|
-----------6--------|------------4-4---------|--------------------|
--------------------|---------4--------------|--4--------4--------|
--4-----------------|--2------------------2--|--------------------|
--------------------|------------------------|--------------------|

  W                   H        H           H        H
-------------------|--------------------|--------------------|
-------------------|--------------------|--------------------|
--4----------------|--6--------6--------|--6--------6--------|
-------------------|--------------------|--------------------|
-------------------|--4--------4--------|--4--------4--------|

  H        H           H        H           H        H
--------------------|--------------------|--------------------|
--------------------|--------------------|--------------------|
--6--------6--------|--6--------6--------|--6--------6--------|
--------------------|--------------------|--------------------|
--4--------4--------|--4--------4--------|--4--------4--------|

  H        H           H        H           H        H
--------------------|--------------------|--------------------|
--------------------|--------------------|--------------------|
--6--------6--------|--4--------4--------|--2--------2--------|
--------------------|--------------------|--------------------|
--4--------4--------|--2--------2--------|--0--------0--------|

  H        H           W
--------------------|-------------------||
--4--------4--------|-------------------||
--------------------|-------------------||
--2--------2--------|--2----------------||
--------------------|-------------------||

Duration Legend
---------------
W - whole
H - half
Q - quarter
E - 8th
S - 16th
T - 32nd
X - 64th
. - note dotted
|-n-|  - n-tuplets