Login or Register to remove this ad. | Advertise Here

Cry in Sorrow (Final Fantasy IV) Guitar Tab

Submitted: Oct 03, 2007 by Calebelijah (Last updated: Sep 20, 2009)

4.25
Average: 4.3 (4 votes)
Download | Listen
Game: Final Fantasy IV
Composer(s): Nobuo Uematsu
Style: 2 or more instruments, Transcription
Series: Final Fantasy

Click here for a video example.

AutoScroll: Slow | Medium | Fast
                                     Cry                                        

Track 2
     H.           Q       H.           Q       W
E||--------------------|--1------------4----|--3----------------|
B||---------------2----|--------------------|-------------------|
G||--3-----------------|--------------------|-------------------|
D||--------------------|--------------------|-------------------|
A||--------------------|--------------------|-------------------|
E||--------------------|--------------------|-------------------|

  H.           E  E     H        Q    Q       Q    Q    Q    Q
------------------1--|--2--------4----2----|--1-------------------|
--4------------4-----|---------------------|-------2---------2----|
---------------------|---------------------|------------3---------|
---------------------|---------------------|----------------------|
---------------------|---------------------|----------------------|
---------------------|---------------------|----------------------|

  H        E  E  E  E     H        Q    E  E     W
-----------------------|----------------------|-------------------|-------|
--4-----------------2--|--4----------------2--|--2----------------|-------|
-----------------------|----------------------|-------------------|-------|
-----------------------|----------------------|-------------------|-------|
-----------------------|----------------------|-------------------|-------|
-----------------------|----------------------|-------------------|-------|

  H.           Q       H.           Q       W
--------------------|--6------------9----|--8----------------|
---------------7----|--------------------|-------------------|
--8-----------------|--------------------|-------------------|
--------------------|--------------------|-------------------|
--------------------|--------------------|-------------------|
--------------------|--------------------|-------------------|

  H.           E  E     H        Q    Q       Q    Q    Q    Q
------------------6--|--7--------9----7----|--6-------------------|
--9------------9-----|---------------------|-------7---------7----|
---------------------|---------------------|------------8---------|
---------------------|---------------------|----------------------|
---------------------|---------------------|----------------------|
---------------------|---------------------|----------------------|

  H.           E  E     H.           E  E     W
---------------------|---------------------|-------------------|-------||
--9---------------7--|--9---------------7--|--7----------------|-------||
---------------------|---------------------|-------------------|-------||
---------------------|---------------------|-------------------|-------||
---------------------|---------------------|-------------------|-------||
---------------------|---------------------|-------------------|-------||

Duration Legend
---------------
W - whole
H - half
Q - quarter
E - 8th
S - 16th
T - 32nd
X - 64th
. - note dotted
|-n-|  - n-tuplets





                                     Cry                                        

Track 1
     E  E  E  E  E  E  E  E     E  E  E  E  E  E  E  E
E||--------------------------|--------------------------|
B||-----6--7--6-----6--7--6--|-----6--7--6-----6--7--6--|
G||--------------------------|--------------------------|
D||--8-----------8-----------|--8-----------8-----------|
A||--------------------------|--------------------------|
E||--------------------------|--------------------------|

  E  E  E  E  E  E  E  E     E  E  E  E  E  E  E  E
--------------------------|--------------------------|
-----8--9--8-----8--9--8--|-----8--9--8-----8--9--8--|
--------------------------|--------------------------|
--8-----------8-----------|--8-----------8-----------|
--------------------------|--------------------------|
--------------------------|--------------------------|

  E  E  E  E  E  E  E  E     E  E  E  E  E  E  E  E
--------------------------|--------------------------|
-----7--9--7-----7--9--7--|-----6--7--6-----6--7--6--|
--------------------------|--------------------------|
--8-----------8-----------|--8-----------8-----------|
--------------------------|--------------------------|
--------------------------|--------------------------|

  E  E  E  E  E  E  E  E     E  E  E  E  E  E  E  E
--------------4-----------|--------------2-----------|
--------4-----------4-----|--------2-----------2-----|
-----4-----4-----4-----4--|-----2-----2-----2-----2--|
--6-----------------------|--4-----------------------|
--------------------------|--------------------------|
--------------------------|--------------------------|

  E  E  E  E  E  E  E  E     E   E   E  E  E  E   E   E
--------------------------|----------------9-------------|
--------------6--------6--|--9----------9-----9----------|
-----------6--------6-----|---------10-----------10------|
--------6--------6--------|-----11-------------------11--|
-----8--------------------|------------------------------|
--9-----------------------|------------------------------|

  E  E  E  E  E  E  E  E     E  E  E  E  E  E  E  E
--------------------------|--------------------------|
--------------------------|--------------------------|
-----3--4--3-----3--4--3--|-----3--4--3-----3--4--3--|
--1-----------1-----------|--1-----------1-----------|
--------------------------|--------------------------|
--------------------------|--------------------------|

  E  E  E  E  E  E  E  E     E  E  E  E  E  E  E  E
--------------------------|--------------------------|
-----1--2--1-----1--2--1--|-----1--2--1-----1--2--1--|
--------------------------|--------------------------|
--1-----------1-----------|--1-----------1-----------|
--------------------------|--------------------------|
--------------------------|--------------------------|

  E  E  E  E  E  E  E  E     E  E  E  E  E  E  E  E
--------------------------|--------------------------|
-----0--2--0-----0--2--0--|--------------------------|
--------------------------|-----3--4--3-----3--4--3--|
--1-----------1-----------|--1-----------1-----------|
--------------------------|--------------------------|
--------------------------|--------------------------|

  E  E  E  E  E  E  E  E     E  E  E  E  E  E  E  E
--------------------------|--------------------------|
--------------------------|--------------------------|
--------------6-----------|--------------4-----------|
--------6-----------6-----|--------4-----------4-----|
-----7-----7-----7-----7--|-----5-----5-----5-----5--|
--9-----------------------|--7-----------------------|

  E  E  E  E  E  E  E  E     E  E  E  E  E  E  E  E
--------------------------|--------------2-----------||
--------------------------|--2--------2-----2--------||
--------------3--------3--|--------3-----------3-----||
-----------4--------4-----|-----4-----------------4--||
-----1--4--------4--------|--------------------------||
--2-----------------------|--------------------------||

Duration Legend
---------------
W - whole
H - half
Q - quarter
E - 8th
S - 16th
T - 32nd
X - 64th
. - note dotted
|-n-|  - n-tuplets